Acordes de Guitarra » M »Maia » Se me acabó el amor (Tab)

Se me acabó el amor
Maia

Letras, Acordes y Tabs para Guitarra, Bajo y Ukulele

  • A2, A/F#, D2, E(se repite dos veces)
    a la segunda vez va E2
    
    
    
           A2                 C#m  C#m2
    Si yo pudiera encontrar hoy las palabras
           F#m         E           D          E
    y marcharme sin dejar dolor en tu corazón
          F#m         E            D          C#m 
    si encontrara la manera de explicar mi despedida
        Bm       A2     E2
    sin dejar un mal sabor
    
              A2           
    No es culpa de tus besos 
               C#m                      F#m      E
    ni de tus manos que sin miedo me acarician
        D            G#               C#m   B
    no busques algo que ya se ha perdido
    
  • e------------3---------------3-----------3-------------5-
    B------3-------3----3-3--2-3---------3-----3---3-3---3---
    G--------0-------0-----------------5---5-----5-----5-----
    D---2----------------------------3-----------------------
    A-3------------------------------------------------------
    E--------------------------------------------------------
    Se repite 2 veces
    
    
    Verso I
            C                  Em    
    Si yo pudiera encontrar hoy las palabras,
     Am                           F        G
    y marcharme sin dejar dolor en tu corazón,
     Am                       F
    si encontrara la manera de explicar mi despedida,
    Dm            F     G
    sin dejar un mal sabor.
    
            C                       Em                         Am 
    
  • A2                                  C#m7 Gdim
    Si yo pudiera encontrar hoy las palabras
           F#m         Fm7/E           D          E
    y marcharme sin dejar dolor en tu corazón
          F#m        F#m/E            D          Dadd2/C#
    si encontrara la manera de explicar mi despedida
        Bm7       A     E  D/F#---E/G#
    sin dejar un mal sabor
    
              A2
    No es culpa de tus besos
               A/G#                      F#m  F#m7/E
    ni de tus manos que sin miedo me acarician
        D            G#7               C#m   B
    no busques algo que ya se ha perdido
            C#7          F#7
    en una tonta discusión
        Bm                 A2
    no tiene, no lo encuentro,
       E       D/F#    E/G#
    
  • --------2------------2-------4-------------2------4H2-
    -------2-2-2---2--2-------2----2-2---2---2-------2---2
    ------2---2----4-4-------4-4----4----4--4-------4-----
    -----4---------44-------2------------4-4-------4------
    ----4-----------------------------------------2-------
    ---2-----------4---------------------2----------------
    
    
    ------------2-----4H2----------------------e
    -2---2--2-------2----2-2-------------------b
    4----4-4-------4-2----4-------3---4---6----g
    -----44-------2----------------------------D
    -------------------------------------------A
    -----4---------------------2----4-----6----E
    
    MEDIO
    
    --------2------------2-------4-------------2------2--2
    -------2-2-2---2--2-------2----2-2---2---2-------2-2--
    ------2---2----4-4-------4-4----4----4--4-------4---4-
    
  • +
    ¡Colabora con nosotros!
    Envíanos tu versión de esta canción

Letra de Se me acabó el amor
Si yo pudiera encontrar hoy las palabras
y marcharme sin dejar dolor en tu corazón
si encontrara la manera de explicar mi despedida
sin dejar un mal sabor
No es culpa de tus besos
ni de tus manos que sin miedo me acarician
no busques algo que ya se ha perdido
en una tonta discusión
no tiene, no lo encuentro,
no existe explicación
Se me acabó el amor
se fue, así, no más sin avisármelo
y no pensó jamás en el dolor que viviría en ti
se me acabo el amor,
A2(intro)
se fue
II estrofa igual que la primera....
Cómo olvidar esos momentos que vivimos
la intensidad de cada día,
lo descubierto junto a ti
los momentos compartidos lo felices que hemos sido
mas no sé cómo se fue
no sé cómo pedirte perdón por mis palabras sin sentido
no sé como encender de nuevo el corazón
sólo tengo este adiós
no tiene, no lo encuentro,
no existe explicación
Se me acabó el amor........
y no puedo explicarlo,
no encuentro las palabras...
se fue
se deben tocar en el momento preciso y acompañando la voz...
cuando un acorde aparece por ejemplo A/G# es que deben buscar el G# en el bajo.
mas adelante subiré el tutorial a youtube como carlos yepes

Video de Se me acabó el amor
[]




[Se me acabó el amor chords][Se me acabó el amor cifra]
© LaCuerda.net · aviso legal · privacidad · es · en · pt · contacto