Acordes de Guitarra » M »Maia » No Quererte (Tab)

No Quererte
Maia

Letras, Acordes y Tabs para Guitarra, Bajo y Ukulele

  • Gm                            D#
    Yo de afuera estoy en paz sin ti
    D#
    Ya paso, ya sufrí
    
    Gm                D#
    No ves hacer mi cuerpo
    D#
    Después de haber llorado un río
    Gm
    Sin hallar lo que soñé
    D#
    Un día abrí la puerta
    F
    Y de tus brazos escape.
    
    CORO
    Gm                                 D#
    Noooo, no trates que no quiero verte
       A#            F
    
  • E|------------------------------------|
    B|------------------------------------|
    G|-----0------------------------------|
    D|-2-4---4-4-4-2-2-0-2-----0-2---0-2--|
    A|-----------------------3-----3------|
    e|------------------------------------|
    
    No ves hacer mi cuerpo
    E|------------------------------------|
    B|------------------------------------|
    G|----------------0-------------------|
    D|-4-4-4-4-s-7--4---2-----------------|
    A|------------------------------------|
    e|------------------------------------|
    
    
    Después de haber llorado un río sin hallar lo que soñé
    E|---0--------------------------------|
    B|-----3-3-1-1-0-0-0--0------------0--|
    G|-0--------------------0-2-2-2-0-----|
    
  • +
    ¡Colabora con nosotros!
    Envíanos tu versión de esta canción

Letra de No Quererte
Yo de afuera estoy en paz sin ti
Ya paso, ya sufrí
No ves hacer mi cuerpo
Después de haber llorado un río
Sin hallar lo que soñé
Un día abrí la puerta
Y de tus brazos escape.
Noooo, no trates que no quiero verte
Porque yo ya me fuiiiiiiiii
Noooo, no trates de cambiar la suerte
Estas fuera de mí
Porque yo ya elegí NO QUERERTE.
Me llevaste hasta el borde del final,
Porque si
Tú robaste mi fuerza,
Me empujaste hacia la soledad
Desperté, descubrí, entendí, aprendí
A ver más allá de ti
Existe otro mundo.
No esperes nada
Que el rio se secooo.

Video de No Quererte
[]




[No Quererte chords][No Quererte cifra]
© LaCuerda.net · aviso legal · privacidad · es · en · pt · contacto