Acordes de Guitarra » M »Machuca » Corazón Desilucionado (Tab)

Corazón Desilucionado
Machuca

  • Letra y Acordes
    Intro : Em - C - D
    
    Em                 C   D
    Llevo el corazon alborotado
    Em              C       D
    desde un tiempo hasta ahora
    Em              C      D
    tanto tiempo la he deseado
          Em  
    que ahora que la tengo
       C         D
    no se que hacer
    Em             C    D
    Pense mucho en retenerla
       Em                       C     D
    y ahora que la tengo ya no quiero verla
    Em                  C      D
    esta nena ya no es mas mi chica
    Em                 C   D     Em
    esta nena ya me ha engañado
    
  • Letra y Acordes
       MI    DO   RE       MI   DO   LA   
    -------------------|-------------------|
    -------------------|-------------------|
    -------------------|-------------------|
    ----9----5----7----|----9----5----7----|
    ----7----3----5----|----7----3----7----|
    -------------------|--------------5----|
    
    (MI)             (DO)   (RE)
    Llevo el corazón alborotado
    (MI)            (DO)  (RE)
    desde un tiempo hasta ahora
    (MI)            (Do)(Re)
    tanto tiempo la he deseado
    (MI)                   DO        LA 
    que ahora que la tengo no se que hacer
    (MI)       (DO) (RE)
    Pense mucho en retenerla
    (MI)                 (DO)        (RE) 
    y ahora que la tengo ya no quiero verla
    
  • Tab p/Bajo
        [intro]
    
    G]-------------------¦-----------------------------------
    D]-------------------¦-----------------------------------
    A]-7--3-3--5-5-------¦--7---3-3-0-0----------------------
    E]-------------------¦-----------------------------------
    
    
    
        [verso]
    
    G]--------------------------------
    D]-------------------------------- 
    A]--7--3--5----------------------- x8
    E]--------------------------------
    
    
    
        [coro] 
    
    G]------------¦-----------¦----------¦-----------¦---------------------
    D]------------¦-----------¦----------¦-----------¦---------------------
    A]--3--7------¦--------7--¦-3--7-----¦-----------¦-7-3-3-5-5-7-3-3-0-0
    E]------------¦-3---------¦----------¦-3---5-----¦----------------------
    
    
    se repite
    
    
    
    G]---------------------------------------------
    D]---------------------------------------------  x2
    A]-7---3--------6-----------------------------
    E]-----------3---------------------------------
    
    
    
    G]-----------------
  • +
    ¡Colabora con nosotros!
    Envíanos tu versión de esta canción

Letra de Corazón Desilucionado
Llevo el corazon alborotado
desde un tiempo hasta ahora
tanto tiempo la he deseado
que ahora que la tengo
no se que hacer
Pense mucho en retenerla
y ahora que la tengo ya no quiero verla
esta nena ya no es mas mi chica
esta nena ya me ha engañado
Como todo corazon desilusionado
ya no puedo sentirte a mi lado
Como todo corazon desilusionado
ya no puedo sentirte a mi lado
( se repite )
ya no puedo ya no quiero
sentirte a mi lado
Acordes :



© LaCuerda.net · aviso legal · privacidad · contacto