Tablatura para Guitarra de Luis Miguel: Sabor A Mi
Conexión · Inscripción
Letras y Acordes
Pantalla Completa
Imprimir
Versión Texto
Añadir Favorito
Otras Versiones

Mostrar Diagramas
Desfile Automático
Manipular Acordes
Formato del Texto


Sabor A Mi(TAB)

Luis Miguel

calidad:
lmig0496
AUTOR: Alvaro Carrillo
ALBUM: Romances (??)
Enviado por Edwin
Esta canción es la melodía.  Como si fuera la letra de la
canción pero tocada.

Empieza así:

1.          disfrutamos       nuestras almas      tanto asi
  Tanto tiempo        de este amor      se acercaron
E]-----1---|---------|-------|---------|---------|-------|
B]-3-4---4-|-3-1-3---|-3-1-3-|-1-3-4-3-|-1---1---|-1---1-|
G]---------|-------0-|-------|---------|---3-----|---3---|
D]---------|---------|-------|---------|-------3-|-------|
2.          mi presencia en   bastaría con        conversar
 Si negaras          tu vivir          abrazarte y


1.          tu sabor          vas también
  que yo guardo     pero tu lle        sabor a mi
                                       ↓↓↓↓↓↓↓↓↓
E]---------|-------|---------|--------|---------|
B]-----1---|-------|---------|--------|---------|← Esta parte
G]-2-3---3-|-2-0-3-|-0-2-3-2-|-0---2--|---2---0-|← cambia
D]---------|-------|---------|---3----|-3---3---|
                                        ↑↑↑↑↑↑↑↑↑
  tanta vida        que por fuerza     sabor a mi
2.            yo te di          tienes ya

Cuando se toca 'sabor a mi'
la segunda vez, la melodía cambia a

  sabor a mi
E]---------|
B]---3-----|
G]-------3-|
D]-3---3---|
_______________________________________________________________

De ahí sigue esto y se repite una vez:
            ser tu dueño        yo no tengo
  No pretendo         no soy nada         vanidad
E]---------|---------|---------|---------|-------|
B]-1---1---|-1---1---|-3---1---|-3---1---|-3---1-|
G]---3---1-|---3---1-|---3---3-|---3---3-|---3---|
D]---------|---------|---------|---------|-------|

            doy lo bueno        que otra cosa
  De mi vida          soy tan pobre       puedo dar
E]---------|---------|---------|---------|-------|
B]-------1-|-------3-|-------3-|-1-3-4-3-|-4-3-1-|
G]-0-2-3---|-0-2-3---|-0-2-3---|---------|-------|
D]---------|---------|---------|---------|-------|

          mas de mil años     yo no se si       la eternidad
  Pasaran             muchos mas        tenga amor
E]-----1~|-----------|-------|---------|-------|-1-------|
B]-3-4---|-4-3-1-3---|-4-3-1-|-1-3-4-3-|-1---1-|---3---1-|
G]-------|---------0-|-------|---------|---3---|-----3---|
D]-------|-----------|-------|---------|-------|---------|

            como aquí                  sabor a mi
  pero aya tal      en tus brazos llevaras
E]---------|-------|---------|--------|---------|
B]-----1---|-------|---------|--------|---3-----|
G]-2-3---3-|-2-0-3-|-0-2-3-2-|-0---2--|-------3-|
D]---------|-------|---------|---3----|-3---3---|

Espero y les aya gustado.  Si tienen algún comentario o sugerencia
escríbanme a mi e-mail, epdphx@yahoo.com.
Aprovecho para mandar saludos a:
Mi familia tanto en México como en los USA
Y a:
Timoteo- El que me hizo componer la melodía
Miguel- Mi 'maestro' de música
Y mis compañeros de más allegados:
Laurita, Melina, Erika, Ángel y Rodolfo
Este fichero es trabajo propio de su transcriptor y representa su interpretación personal de la canción. El material contenido en esta página es
para exclusivo uso privado, por lo que se prohibe su reproducción o retransmisión, así como su uso para fines comerciales.

© LaCuerda.net · Aviso Legal · Privacidad