Acordes de Guitarra » L »Luis Miguel » Perfidia (Tab)

Perfidia
Luis Miguel

Letras, Notas, Punteos, Tablaturas y Acordes de Guitarra (Tabs & Chords)

  • Letra y Acordes
    LAm    LA7                        REm
    Nadie       comprende lo que sufro yo 
      MI7                       REm 
    Canto pues ya no puedo sollozar
    LAm   LA7                             remm
    Solo         temblando de ansiedad estoy 
       SI7              MI7                  circulo de LA con bajeo.
    Todos me miran y se van.
    
    
    Enpiezas de nuevo con circulo
     
    
          LA etc.
    Mujer 
    
    Si puedes tu con dios hablar
    
    Preguntale que si yo alguna vez
    
    
  • Letra y Acordes
       MIm7   MIm7 MIm6  FA#m7 SI5  LAm7  SIm7/5- RE7/9 FAdimm FAm7 
    MI---0-----0----0-----2------3----1-----0-------5------4-----2
    SI --0-----0----0-----2------4----1-----3-------5------3-----2
    SOL--0-----0----0-----2------2----2-----2-------5------4-----2
    RE---1-----0----2-----2------4----0-----3-------4------3-----3
    LA --2-----2----4-----0------2----0-----2-------5------X-----4
    MI --0-----0----0-----2------2----0-----0-------X------X-----2
    
    INTRO:   MIm  MIm7   MIm7 MIm6   DO7   LAm7   FA#m7    SI5 
    
    
                MIm         MI    MI7                LAm      LAm7 
    VARIACION:  Nadie       comprende lo que sufro yo 
                SI        SI7             MIm  LAm7  SI7
               Canto pues ya no puedo sollozar
                SIm7/5-  MI     MI7          LAm  LAm7  LAm7  RE7/9
               Solo         temblando de ansiedad estoy 
                 FA#      FA#7       SI    SI7
               todos me miran y se van.
    
    
  • Tablatura
    intro: SOL MIm LA  RE7x2
    e|--7--8--10--10--10--8--8--7--7--5--5---|
    b|--8--10-12--12--12--10-10-8--8--7--7---|
    g|--------------------------------------7|
    
    e|--7--8--10--10--10--8--8--7--7--5--5---|
    b|--8--10-12--12--12--10-10-8--8--7--7---|
    g|--------------------------------------7|
    
      SOL MIm LAm
    Mujer,
        RE7       SOL     MIm    LAm
    Si puedes tu con Dios hablar,
       RE7        SOL       MIm
    Pregúntale si yo alguna vez
    LAm          RE7     SOL
    Te he dejado de adorar.
    
    e|--7--8--10--10--10--8--8--7--7--5--5---|
    b|--8--10-12--12--12--10-10-8--8--7--7---|
    
  • Tablatura
      1 --------------------------------------------------
      2 ---1--0131010-----0131010------1------------------
      3 -0-------------2-----------2--------020----02-----
      4 ----------------------------------------3-----32--
      5 --------------------------------------------------
      6 --------------------------------------------------
        MUJER SI PUEDES TU CON DIOS HABLAR PREGUNTALE SI
        YO ALGUNA VEZ TE HE DEJADO DE ADORAR
    
      1 --------------------------------------------------
      2 ---1--0131010-----0131010-----1-------------------
      3 -0-------------2-----------2--------20----02------
      4 ----------------------------------------3------32-
      5 --------------------------------------------------
      6 --------------------------------------------------
        Y AL MAR ESPEJO DE MI CORAZON LAS VECES QUE HA
        VISTO  LLORAR LA PERFIDIA DE TU AMOR
    
      1 ---------------------------------------------------
      2 -------------------------0------01--333--1-000-1---
      3 ---------0-22212
  • Piano (Teclados)
    Es muy básica... pero suena bien!!
    
    Tacet -  C  Am Dm         G         C
    sol  -  do-----do - si-do-re-do-si-do-si-la
    mu   -  jer------ si pue-des tu con Dios ha-blar
    
    Am Dm      G             C       Am    Dm           E    F
    ---la  si-do-re-do-si--do-si-la--do-la-sol-la-fa-mi-----mi
         pre-gún-ta-le si yoal-gu-na vez tehe-de-ja-do dea-do-rar
    
    G       C  Am Dm         G         C
    sol  -  do-----do-si-do-re-do-si-do-si-la
    yel   - ma---- es-pe-jo de mi  co-ra-zón
    
    Am Dm      G             C       Am    Dm           E    F
    ---la  si-do-re-do-si--do-si-la--do-la-sol-la-fa-mi-----mi
       las ve-ces que meha vis-to llo-rar la per-fi-dia de tua-mor
    
    Tacet-Dm                                                       E
    ---re-mi-fa-fa-fa-sol-la-la-la-sol#-la--sol#-la-sol#-la-si-sol#---
    te he bus-ca-do don-de quie-ra que yo voy y no te pue-doha-llar
    
    E-Tacet-Dm                                                       E Tacet
    ---sol--si-do-re-re-re-do-si-si-si-do-si-si-si-la-so
  • +
    ¡Colabora con nosotros!
    Envíanos tu versión de esta canción

Letra de Perfidia
Nadie comprende lo que sufro yo
Canto pues ya no puedo sollozar
Todos me miran y se van.
Enpiezas de nuevo con circulo

Mujer
Si puedes tu con dios hablar
Preguntale que si yo alguna vez
Te he dejado de adorar
Y de nuevo enpieza a qui..
Al mar
Espejo de mi corazon
Las veces que me ha visto llorar
La perfidia de tu amor.
Te he buscado por doquiera que yo voy
Dosost.
Y no te puedo hallar
Para que quiero otros besos
La circulo..
Y tu
Quien sabe por donde andaras
Quien sabe que aventura tendras
Que lejos estas de mi.
Para cualquier duda mandame un e-mail y te puedo ayudar.
Esta cancion es nueva del disco que acaba de sacar espero
que les guste......... abuelo.....



© LaCuerda.net · Aviso Legal · Privacidad