Tablatura para Guitarra de Luis Miguel: Sabor A Mi
Conexión · Inscripción
Letras y Acordes
Pantalla Completa
Imprimir
Versión Texto
Añadir Favorito
Otras Versiones

Mostrar Diagramas
Desfile Automático
Manipular Acordes
Formato del Texto


Sabor A Mi(TAB)

Luis Miguel

calidad:
lmig0493
AUTOR: Alvaro Carrillo
ALBUM: Romances (??)
Enviado por alonso
esto es la guitarra de el principio

E-------------------10h11/13-13--11-10----13-11-10----13-11-13-----
B----------10-11-13--------------------13----------13--------------
G-12-12-12---------------------------------------------------------
D------------------------------------------------------------------
A------------------------------------------------------------------
E------------------------------------------------------------------

E-11-11h13p11-11\10-10-10\8----8-------8-------8-------8-------8---
B---------------------------11---10-11---10-11---10-11---10/11-----
G------------------------------------------------------------------
D------------------------------------------------------------------
A------------------------------------------------------------------
E------------------------------------------------------------------

E-----------------------10h11p11-------10------------------10------
B-11-10----------10-11-----------11-13-------------8-10/11---------
G-------12-11-12--------------------------7-8-10-------------------
D------------------------------------------------------------------
A------------------------------------------------------------------
E------------------------------------------------------------------

E-8-8--6-6--5-5--3-5----3-5------------4h5p4--3-3------------------
B---------------------6------6--6-5-6------------------------------
G------------------------------------------------------------------
D------------------------------------------------------------------
A------------------------------------------------------------------
E------------------------------------------------------------------

luego a media cancion hay otra parte en la guitarra que va asi

E-10-11-13-11-10----12--------10--10--8-10-11-10-8--8--------8---8-
B----------------13-------------13----------------11-----------11--
G---------------------13-11/12-----------------------10-9/10-------
D------------------------------------------------------------------
A------------------------------------------------------------------
E------------------------------------------------------------------
Este fichero es trabajo propio de su transcriptor y representa su interpretación personal de la canción. El material contenido en esta página es
para exclusivo uso privado, por lo que se prohibe su reproducción o retransmisión, así como su uso para fines comerciales.

© LaCuerda.net · Aviso Legal · Privacidad