Acordes de Guitarra » L »Luis Miguel » No me puedes dejar así (Tab)

No me puedes dejar así
Luis Miguel

Letras, Acordes y Tabs para Guitarra, Bajo y Ukulele

  •             SOL              RE          MIm            DO   RE
    A.      Hablas de repente y tu disco suena suavemente
                SOL          RE                MIm              DO     RE
          Eres tan distinta cuando vas saltando entre la gente
                SOL        RE                MIm7
          Por favor, no hay nada más que amor
            RE             DO                                          RE                  RE7
          La lluvia llueve el mar se mueve y cada instante es tan distinto pero
    
      
                SOL         RE                MIm              RE                        SOL
    B.      No, no me puedes dejar así, como un tonto pensando en ti
                      DO                   RE
          Sin saber porqué te vas, no no no
    
          No, no me puedes dejar así quédate un poco más aquí
          Quédate un poquito más.
    
    
    B.      (En LA)
    
  •    D#        A#      D#        A#      Cm        A#       Cm        G#      A#
    E--3----- ---------3-3----- ---------6-6-4-3- ----------6-6-4-3- -3-4-3-----6--
    B----6-4- -4-6-4-6-----6-4- -4-6-4-6--------- -4-6--4-6--------- -------6-4-6--
    G-------- ----------------- ----------------- ------------------ --------------
    D-------- ----------------- ----------------- ------------------ --------------
    A-------- ----------------- ----------------- ------------------ --------------
    E-------- ----------------- ----------------- ------------------ --------------
    
       D#              D#                  A#
    E--------------- --15--15-16-18-16-15--
    B--8-8-9-11-9-8- ----16----------------
    G---8----------- ----------------------
    D--------------- ----------------------
    A--------------- ----------------------
    E--------------- ----------------------
    
    =ESTROFA=
      D#          Gm         G#          A#
      HABLAS DE REPENTE Y TU DISCO SUENA SUAVEMENTE,
      D#          Gm           G#             A#
    
  •    FA        DO      FA        DO     REm        DO       REm     LA#      DO
    E--5----- ---------5-5----- ---------8-8-6-5- ---------8-8-6-5- -5-6-5-----8--
    B----8-6- -6-8-6-8-----8-6- -6-8-6-8--------- -6-8-6-8--------- -------8-6-8--
    G-------- ----------------- ----------------- ----------------- --------------
    D-------- ----------------- ----------------- ----------------- --------------
    A-------- ----------------- ----------------- ----------------- --------------
    E-------- ----------------- ----------------- ----------------- --------------
    
       FA                               DO
    E------------------ --5---5-6-8-6-5--
    B--------1--------- ----6------------
    G--2---2---3--3--2- -----------------
    D----3------------- -----------------
    A------------------ -----------------
    E------------------ -----------------
    
    =ESTROFA=
      FA          LAm        LA#         DO
      HABLAS DE REPENTE Y TU DISCO SUENA SUAVEMENTE,
      FA          LAm          LA#            DO
    
  • +
    ¡Colabora con nosotros!
    Envíanos tu versión de esta canción

Letra de No me puedes dejar así
A. Hablas de repente y tu disco suena suavemente
Eres tan distinta cuando vas saltando entre la gente
Por favor, no hay nada más que amor
La lluvia llueve el mar se mueve y cada instante es tan distinto pero

B. No, no me puedes dejar así, como un tonto pensando en ti
Sin saber porqué te vas, no no no
No, no me puedes dejar así quédate un poco más aquí
Quédate un poquito más.
A. Escapar contigo dar la vuelta al mundo en un segundo
Como dos amigos súper millonarios vagabundos
Por favor, no hay nada más que amor
El viento suena, el rayo truena y cada instante es tan distinto pero
B. No, no me puedes . . .




[No me puedes dejar así chords][No me puedes dejar así cifra]
© LaCuerda.net · aviso legal · privacidad · es · en · pt · contacto