Acordes de Guitarra » L »Luis Alberto Spinetta » Era de tontos (Tab)

Era de tontos
Luis Alberto Spinetta

Letras, Acordes y Tabs para Guitarra, Bajo y Ukulele

  •    C#
    Donde yo quiero estar,
       D#
    es lo que no interesa...
       C#
    No elijo el lugar,
       D#
    lo tomo por sorpresa... Uhhh Yeeeehh
    
    Riff 2 X4
    
    Despues de mucho andar, estar muy solo...
    La preocupación en mi cabeza...
    tuve que dar mil vueltas y chocar en todos lados....
    para poder gozar el polvo de estrella...
    
    Donde yo quiero estar,
    es lo que no interesa...
    No eliiiijo el lugar,
    lo tomo por sorpresa... Ohh Yeahh
    
  • G|-----------------------------------------------------------------------
    D|8---8---8--8----6/8-8-8-8--8---8----6/8---6-8-8-8-8----6/8--8--8---8-6-
    A|-----------------------------8-----------------------------------8-----
    E|-----------------------------------------------------------------------
    
     “No puedo evitar que mi memoria
    G|------------------------------6/8-10-8-6-8-6---------
    D|6-8-8-8-8----6-8-8-8-8----6/8-----------------8-8----
    A|-----------8-----------------------------------------
    E|-----------------------------------------------------
     este recopilando            los viejos tiempos”
    G|--------------6/8--8-8-8-----------------------------
    D|8--8-8-8--6/8---------------6------------------6-----
    A|---------------------------------------4-6-7-8-------
    E|-----------------------------------4-6---------------
     “El pensamiento y todas esas cosas”
    G|----------------------------------------------------------
    D|8-----8--6-8-8----------6/8--8-8-8---8---6/8-8---8---8----
    A|--------
  • +
    ¡Colabora con nosotros!
    Envíanos tu versión de esta canción

Letra de Era de tontos
Donde yo quiero estar,
es lo que no interesa...
No elijo el lugar,
lo tomo por sorpresa... Uhhh Yeeeehh
Riff 2 X4
Despues de mucho andar, estar muy solo...
La preocupación en mi cabeza...
tuve que dar mil vueltas y chocar en todos lados....
para poder gozar el polvo de estrella...
Donde yo quiero estar,
es lo que no interesa...
No eliiiijo el lugar,
lo tomo por sorpresa... Ohh Yeahh
Riff 2 X22
El tiempo ya pasó en mis dedos,
la electricidad pierde potencia...
menos mal que ahora el camino está sencillo,
que el viejo polvo no solo está conmigo.
Riff 2
Riff 3
Riff 1
Riff 2
Riff 3
bueno... les debo los solos pero estan los acordes y los riffs
bye
consultas al mail.




[Era de tontos chords][Era de tontos cifra]
© LaCuerda.net · aviso legal · privacidad · es · en · pt · contacto
DINAMICO