Acordes de Guitarra » L »Luis Alberto Spinetta » Bajan (Tab)

Bajan
Luis Alberto Spinetta

Letras, Acordes y Tabs para Guitarra, Bajo y Ukulele

  •  B-----0-2---------0-2---------0-2---------0-2---------
     G------1-----------1-----------1-----------1----------
     D-----------------------------------------------------
     A-----------------------------------------------------
     E-0---------3-0---------3-0---------3-0---------3-0---
    
    
     E            F#m
      Tengo tiempo   para saber
    
    C#m           D#dim    B
       si lo que sueño concluye en algo
    
    E            F#m
     No te apures   ya más loco
    
    C#m             D#dim     B
       porque es entonces cuando las horas
    
    
    
  • E                   F#m
        Tengo tiempo                para saber 
    
    C#m              D#dim   B
        si  lo  que  sueño  concluye  en  algo
    
    E                   F#m
        No te apures                ya más loco
    
    C#m                D#dim             B
        porque es entonces cuando las horas
    
    
    C#m        G#m    B              C#m
    bajan, el  día  es  vidrio  sin  sol
    
              G#m         B      Cdim    C#m  
    Bajan, la noche te ocul  -  ta   la   voz
    
             C             Am7  G#7     F#m
    
  • Aquí incluyo el solo de la canción, que se toca en guitarra eléctrica
    limpia luego de terminada la parte cantada.
    Esta, al igual que la canción, en Mi Mayor, a la que se le agrega
    en algunas ocasiones la nota blusera de su equivalente menor en C#.
    El único acorde sobre el que se construye el solo es E, tocado
    como arpegio de la siguiente forma:
    
    e|-----0-------0-----|
    B|-------0---2-------|
    G|---------1---------|
    D|---2---------------|
    A|-------------------|
    E|-0-------------3b4-|
    
    
    Solo:
    
    e|-------------------------------------------------|
    B|-------------------------------------12-------12-|
    G|-11b13-11b13~~-11b13r11--------11b13----11b13----|
    D|------------------------9-11~~-------------------|
    A|-------------------------------------------------|
    E|-------------------------------------------------|
    
    e|----------------------------------|
    B|----------------------------------|
    G|-11b13-11-9-11-11--9-11----9-11---|
    D|------------------------11------9-|
    A|---------------------------
  • Hola, como no encontre una versión de este tema que este completamente
    bien hecho en bajo, me lo puse a sacar.
    Creo que esta casi del todo correcto, espero que les guste.
    
    
    Intro
    
    Solo Guitarra
    
    Tengo tiempo
    para saber
    si lo que sueño concluye en algo
    no te apures
    llamas loco
    por es entonces cuando las horas
    
    
    bajan... el día es vidrio sin sol...
    
    
    G----------------------------------------------------
    D--------6-4---------6-6--4-------------6------------
    A--4-4-4------7-------6----7-------4-4----4-44-4-----
    E---------------4-4---------7-7-77-------------------
    
    bajan... la noche te oculta la voz
    
    G-----------------------------------
    D---6-4-----------------------------
    A-4-----7-----------2-3-2-2-4-3-4---
    E---------4-4--44-4-----------------
    
    
    y ademas vos queres sol... despacio también podes hallar la luna
    G-----------------------------------------------------------
    D----2-3-4-5-6---------------------4------------------------
    A--3-----------3----------------------2-3-4----2--4-6-7
  • +
    ¡Colabora con nosotros!
    Envíanos tu versión de esta canción
  • Tutorial
    HD
    Explicado - Como tocar "Bajan" de Luis Alberto Spinetta en el bajo tutorial#96
    11:29

Letra de Bajan
Tengo tiempo para saber
si lo que sueño concluye en algo
No te apures ya más loco
porque es entonces cuando las horas
bajan, el día es vidrio sin sol
Bajan, la noche te ocul-ta la voz
Y además vos que-rés Sol
Despacio también podés hallar la luna
Viejo roble del camino,
tus hojas siempre se agitan algo
Nena, nena, que bien te ves
Cuando en tus ojos no importa si las horas
bajan, el día se sienta a morir
Bajan, la noche se nubla sin fin
Y además vos sos el Sol
Despacio también podes ser la luna.
*Bueno así es creo yo y mi oído lo mejor es q la escuchen
a la canción muy detalladamente(suena bien el bajo y
comprobaran los acordes)




[Bajan chords][Bajan cifra]
© LaCuerda.net · aviso legal · privacidad · es · en · pt · contacto