Acordes de Guitarra » L »Luis Alberto Spinetta » Seguir viviendo sin tu amor (Tab)

Seguir viviendo sin tu amor
Luis Alberto Spinetta

Letras, Acordes y Tabs para Guitarra, Bajo y Ukulele

  •                                 D                  D2
    Si a tu corazón yo llego igual
    D         D2           Bm               B2
    todo siempre se podrá elegir
    Bm        B2            A/G     G
    no me escribas la pared 
    A/G        G                 Em7          A
        sólo quiero estar entre tu piel 
    
    Y si acaso no brillara el sol
    y quedara yo atrapado aquí
    no veria la razón
    de seguir viviendo sin tu amor
    
    F#
       y hoy que enloquecido vuelvo
          Bm
    buscando tu querer  
           Em7
    no queda más quel viento
    
  • ||----9-10------------||----9-10-----------||
    ||--7------10-8-10----||--7------10-8-7----||
    ||o------------------o||o-----------------o||
    ||o------------------o||o-----------------o||
    ||--------------------||-------------------||
    ||--------------------||-------------------||
    
    ||----9-10------------||-------------------||
    ||--7------10-8-12----||--7-8-10-8-7-8h10--||
    ||o------------------o||o-----------------o||
    ||o------------------o||o-----------------o||
    ||--------------------||-------------------||
    ||--------------------||-------------------||
                                                           D         D2
                          D         D2    D              ______    ______
    SI A tu corazón yo llego igual,                      ||||||    ||||||
    D         D2        Bm       B2    Bm                |||@|@    |||@||
    todo siempre se podrá elegir.                        ||||@|    ||||@|
    Bm        B2            A/G     G  A/G               ||||||    ||||||
    No me escribas la pared.
    
  • Intro
    
    Bueno, en los punteos de este tema utiliza un delay,
    osea, hace una sola vez cada punteo, pero con un efecto
    hace que se repita (antes de hacer el que sigue...)
    yo lo tengo ajustado con un retardo de 2.1 al delay,
    y  queda bien a lan velocidad que hace el tema...
    
    e----9-10------------
    b--7------10-8-10----
    g--------------------
    d--------------------
    a--------------------
    e--------------------
    
    e----9-10------------
    b--7------10-8-7-----
    g--------------------
    d--------------------
    a--------------------
    e--------------------
    
    e----9-10------7----- (el último 7 se puede hacer tmb
    b--7------10-8------- arrastrando el del 10 al 12 en
    g-------------------- la segunda cuerda, pero me gusta mas
    d-------------------- de la 1º forma, suena mas limpio)
    a--------------------
    e--------------------
    
    e--------------------
    b--7-8-10-8-7-10-----
    g--------------------
    d--------------------
    a--------------------
    e--------------------
    
    Solo:
    
    e----9-10------------
    b--7------10-8-7-----
    g--------
  • Intro
    |------2---------------------------------------------------------
    |0--x-----0---0--0-----------------------------------------------
    |------------2----2--x--2--2--02--0--------------------------0---
    |----------------------------------3--x--3--3--x--3--0--0-0------
    
    Verse
    |------2---------------------------------------------------------
    |0--x-----0--20--------------------------------------------------
    |----------------42--x--2--2--42--0--------------------------0---  x2
    |----------------------------------3--x--3--3--x--3--0--0-0------
    
    Bridge
    |----------------------------------------------------------------
    |----------------------------------------------------------------
    |-0------------------2--2-2--2--22--2------------------------0---
    |----2--22--22--22--2----------------0--0-0--0--00--03--3-3------
    
    Verse
    
    Verse
    
    Bridge
    
    Verse
    
    
    
    / - SLIDE UP (barrido hacia adelante)
     - SLIDE DOWN (barrido hacia atrás)
    ˆ - BEND UP (estirar la cuerda hacia arriba)
    ˇ - BEND DOWN (estirar la
  • Les dejo la introducción, suela muy lindo en
    una armónica en DO (el tema esta en este tono).
    Igualmente les va sonar bien en cualquiera.
    Por las dudas aclaro: Una nota entre paréntesis
    es aspirada; sin paréntesis es soplada
    
    (5) (7)  7  6  (5)  6
    
    (5) (7)  7  6  (5)  5
    
    (5) (7)  7  6  (5) (6)
    
     5  (5)  6 (5)  5   6
    
    
    Para los que están mas avanzados con la armónica
    acá les dejo la misma introducción en la octava
    baja (una octava menos)
    
    b: 1er bending aspirado
    
    (2)b (3)  4  3  (2)b  3
    
    (2)b (3)  4  3  (2)b  2
    
    (2)b (3)  4  3  (2)b (3)b
    
     2   (2)b 3 (2)b 2   (2)b
    
    Saludos
  • +
    ¡Colabora con nosotros!
    Envíanos tu versión de esta canción
  • Tutorial
    HD
    Como Tocar Seguir Viviendo Sin Tu Amor Spinetta
    5:14
  • Tutorial
    HD
    Como tocar Seguir viviendo sin tu amor de Spinetta en guitarra (tutarras.com,ar)
    6:42
  • Tutorial
    HD
    Explicado - Como tocar "Seguir viviendo sin tu amor" de Luis Alberto Spinetta para bajo tutorial#22
    11:54

Letra de Seguir viviendo sin tu amor
Si a tu corazón yo llego igual
todo siempre se podrá elegir
no me escribas la pared
sólo quiero estar entre tu piel
Y si acaso no brillara el sol
y quedara yo atrapado aquí
no veria la razón
de seguir viviendo sin tu amor
y hoy que enloquecido vuelvo
buscando tu querer
no queda más quel viento
no queda mas que el viento
Y si acaso no brillara el sol...




[Seguir viviendo sin tu amor chords][Seguir viviendo sin tu amor cifra]
© LaCuerda.net · aviso legal · privacidad · es · en · pt · contacto