Acordes de Guitarra » L »Lucybell » Juego de seducción (Tab)

Juego de seducción
Lucybell

Letras, Acordes y Tabs para Guitarra, Bajo y Ukulele

  • juegos de seduccion
    Lucybell
    bateria de fondo
    guitarra sin distorción
    
    intro
    (con un poco de reverb)
    e ---------------------
    b ---2---2---2-----5---
    g --4---3---4---3------
    d -5---4---5---4-------
    a ---------------------
    e ---------------------
    
    guitarra con distorción
    (suena mejor si solo dan rasgueos hacia abajo)
    
    e --------------------
    b --------------------
    g -7------5-----7-----
    d -7-x16--5-x8--7-x8--
    a -5------3-----5-----
    e --------------------
    voi a ser tu mayordomo
    tu haras el rol de señora bien
    
    e ---------------
    b ---------------
    g -7-----5-------
    d -7-x8--5-x24---
    a -5-----3-------
    e ---------------
    
    o puedo ser tu violador
    la imaginacion esta noche todo lo puede
    
    
    e ----------------------------
    b ----------------------------
    g -5-----7-----6-----5--------
    d -5-x8--7-x8--6-x8--5-x8-----
    a -3-----5-----4-----3--------
    e ----------------------------
    
    te llevaré ....
    
    e ----------------------------
    b --------------------------
  • +
    ¡Colabora con nosotros!
    Envíanos tu versión de esta canción






[Juego de seducción chords][Juego de seducción cifra]
© LaCuerda.net · aviso legal · privacidad · es · en · pt · contacto
DINAMICO