Acordes de Guitarra » L »Lucybell » Sálvame La Vida (Tab)

Sálvame La Vida
Lucybell

Letras, Acordes y Tabs para Guitarra, Bajo y Ukulele

  • INTRO: D - C Am Em - D - C Am Em
    Em                 D           C
    Con que me des un soplo de tu vida
                Am
    Sálvame la mía
                    Em
    No me dejes alejar 
     
    Em                 D          C 
    Me disuelvo en el suelo de rodillas
                Am
    Sálvame la vida
                  Bm
    Cúbreme de espejos
                        Em - D - C Am Em - D - C Am Em
    Nunca dejes de brillar
    
    Em              D          C
    Con que sueñes tiempos de vendimia
                Am
    
  •  RE   DO/SOL  DO    LAm  LAm/SOL MIm/FA#   MIm   SIm
    |-2-|  |-3-| |-0-| |-0-|  |-3-|   |-2-|   |-0-| |-2-|
    |-3-|  |-1-| |-1-| |-1-|  |-1-|   |-0-|   |-0-| |-3-|
    |-2-|  |-0-| |-0-| |-2-|  |-2-|   |-0-|   |-0-| |-4-|
    |-0-|  |-2-| |-2-| |-2-|  |-2-|   |-2-|   |-2-| |-4-|
    |---|  |-3-| |-3-| |-0-|  |-0-|   |-2-|   |-2-| |-2-|
    |---|  |---| |---| |---|  |---|   |-0-|   |-0-| |---|
    
     SOL   RE#·  FA#·
    |-3-| |-3-| |-0-|
    |-3-| |-4-| |-2-|
    |-0-| |-3-| |-2-|
    |-0-| |---| |-4-|
    |-2-| |---| |-4-|
    |-3-| |---| |---|
    
    INTRO: RE - DO/SOL - LAm/SOL - MIm/FA# -         
           RE - DO/SOL - LAm/SOL - MIm 
    
                      RE          DO
    
  • A|5-5-5-5------------------------------------7--7-7-77| <
  • INTRO
    G|---------------------------------------------------------------|
    D|---------------------------------------------------------------|
    A|-5555-3-3-3-3-33-3/55h77---------------------------------------|
    E|-------------------------5-5-5-5-55-5/8888-0-0-0-00------------|
    
    G|----------------------------------------------------------------------|
    D|----------------------------------------------------------------------|
    A|-------------3-3-3-3-33-3/55h77---------------------------------------|
    E|-0/10101010---------------------5-5-5-5-55-5/8888-0---00---0---00/10--|
    
    VERSO
    
    G|-----------------------------------------------------------------------|
    D|-----------------------------------------------------------------------|
    A|-3--33------------------------5555-3--33-------------------------------|
    E|---------5--55---0--00--------------------5--55--7--77-777-0-0-00------|
      Con que me des...            Me disuelvo...   ...cúbreme de...
    
    INTRO
    G|--------------------------
  • +
    ¡Colabora con nosotros!
    Envíanos tu versión de esta canción

Letra de Sálvame La Vida
Con que me des un soplo de tu vida
Sálvame la mía
No me dejes alejar

Me disuelvo en el suelo de rodillas
Sálvame la vida
Cúbreme de espejos
Nunca dejes de brillar
Con que sueñes tiempos de vendimia
Sálvame la vida
No me dejes secar
Soy el alma atrapada en tu risa
Sálvame la vida
Cúbreme de espejos
Nunca dejes de brillar
Una nube
Para tu luz
Una nube
Para tu luz, OOh!
Pero que llueva todo el día
Sálvame la vida
Con que me des un soplo de tu vida
Sálvame la mía
Cúbreme de espejos
Nunca dejes de brillar
Una nube
Para tu luz
Una nube
Para tu luz
Una nube
Para tu luz, OOh!
Pero que llueva todo el día
Sálvame la vida
Sálvame la vida
GRAN TEMA; EL PUNTEO SE LOS QUEDO DEBIENDO PORQUE NO
ANDO CON LA GUITARRA AHORA...
ESTE TEMA SE LO DEDICO A UNA PERSONA MUY ESPECIAL
PARA MÍ... PARA MI DULCE CRIATURA...
I.L.U.
FRUGO.-




[Sálvame La Vida chords][Sálvame La Vida cifra]
© LaCuerda.net · aviso legal · privacidad · es · en · pt · contacto