Acordes de Guitarra » L »Lucybell » Mataz (Tab)

Mataz
Lucybell

Letras, Acordes y Tabs para Guitarra, Bajo y Ukulele

  •   G/D            F              Em         Gsus7
    --------------/--------------/-----7--7--/--2--2--2-----
    --10--10--10--/--10--10--10--/-----7--7--/--3--3--3-----
    --11--11--11--/--10--10--10--/--9--------/--0--0--0-----
    --12--12--12--/--10--10--10--/--9--9--9--/--------------
    --10--10--10--/--8---8---8---/--7--7--7--/--------------
    --------------/--------------/--0--------/--3--3--3-----
    
    
    G/D                                     F 
    Cada vez que veo brillar tus piernas al fin
    
                               Em
    logro descifrar que puedes ser mas
    
                       Gsus7
    que un simple espejo
    
    Cada vez que veo brincar a mi alrededor
    tus labios sin voz logro entender
    
  • INTRO: FAm, MI, RE#m, LA#m
    
    FAm                                     MI 
    Cada vez que veo brillar tus piernas al fin
    
                               RE#m                           
    logro descifrar que puedes ser mas
    
                        LA#m
    que un simple espejo
    
    FAm                                 MI
    Cada vez que veo brincar a mi alrededor
                                RE#m
    tus labios sin voz logro entender
                       LA#m
    que hay solo un beso
                     
    Solo al despertar...
    
    
  • A4    : x 0 0 2 2 0
    C     : x 3 2 0 1 0
    Bm    : x 2 4 4 3 2
    
    Acordes (Puente)
    G     : 3 2 0 0 2 X
    BbMaj7: X 1 3 2 3 1
    Bm    : x 2 4 4 3 2
    Am7   : x 0 2 0 1 0
    
    
    
    INTRO: A4 , C , Bm,  A4
    
    A4
    Cada vez que veo brillar
                    C
    tus piernas al fin
    
                                   Bm
    
  • Intro: DO# MI RE#m LA#m
    
    DO#
    Cada vez que veo brillar
                   MI
    tus piernas al fin logro descifrar
               RE#m
    que puede ser más
                    LA#m
    que un simple espejo
    
    
    DO#
    Cada vez que veo brincar
               MI
    a mi alrededor tus labios sin voz
               RE#m
    logro entender
                         LA#m
    que hay sólo un beso
    
  • Intro:F# mj7,E mj7,D# mj7,*F# mj7
    
    F# mj7
    Cada vez que veo brillar
                   MI mj7
    tus piernas al fin logro descifrar
              RE# mj7
    que puede ser más
                   *F# mj7
    que un simple espejo
    
    
    F# mj7
    Cada vez que veo brincar
               MI mj7
    a mi alrededor tus labios sin voz
               RE# mj7
    logro entender
                       *F# mj7
    que hay sólo un beso
    
  • En el SOLO el bajista toca las mismas notas, pero una sola vez.
    A veces los ritmos que puse no calzan, pero ahi tu le pones talento. ;) 
    
    
    Intro
    
    |-------------------------------|
    |-------------------------------|
    |-5--55-------------------------|
    |--------1--11--0--00-01--3--33-|
    
    Verso
    |-----------------------------------------------------------------------|
    |------------5~---------------------------------------------------5~----|
    |--------5/7---7/5------------2~---------------------55-5/7---5/7---7/5-|
    |-3-33-3-----------2-22-2-2/4---4/2-0-000-00-001-3-3--------3-----------|
    
    |------------------------------------------------------------------------|
    |------------5~---------------------------------------------5~------5~---|
    |--------5/7---7/5------------2~---------------------55-5/7----5/7-----7-|
    |-3-33-3-----------2-22-2-2/4---4/2-0-000-00-001-3-3---------------------|
    
    Puente
    |-----------------------------------------------------------------------|
    |-------
  • +
    ¡Colabora con nosotros!
    Envíanos tu versión de esta canción

Letra de Mataz
Cada vez que veo brillar tus piernas al fin
logro descifrar que puedes ser mas
que un simple espejo
Cada vez que veo brincar a mi alrededor
tus labios sin voz logro entender
que hay solo un beso
Cada vez que veo brillar tus piernas logro entender
que puede ser mas, que puede ser mas
que un simple espejo solo al despertar
Cada vez que veo brincar a mi alrededor
tus labios sin voz logro entender
que hay solo un beso
Si esto llegase a acabar, si esto llegase a acabar
ve mis ojos, mirame directo a los ojos
yo sabre mentir a Dios por verte hoy
Si esto llegase a acabar, si esto llegase a acabar
ve mis ojos, mirame directo a los ojos
yo sabre mentir a Dios por verte hoy
Punteo :
Si esto llegase a acabar, si esto pereciese acabar
mira mis ojos mirame directo a los ojos
yo sabre mentir a Dios por verte hoy
Si eso llegase a acabar, si esto se va va
mira mis ojos mirame directo a los ojos
yo sabre mentir a Dios por verte hoy
Acordes :
(Los demás acordes estan definidos en el Intro)




[Mataz chords][Mataz cifra]
© LaCuerda.net · aviso legal · privacidad · es · en · pt · contacto