Tablatura para Guitarra de Lisandro Aristimuño: Me hice cargo de tu luz
Conexión · Inscripción
Letras y Acordes
Pantalla Completa
Imprimir
Versión Texto
Añadir Favorito
Otras Versiones

Mostrar Diagramas
Desfile Automático
Manipular Acordes
Formato del Texto


Me hice cargo de tu luz(TAB)

Lisandro Aristimuño

calidad:
lari0112
AUTOR: Lisandro Aristimuño
ALBUM: 39 Grados
Enviado por Joan, basado en Fernando
Intro:

E||---------------------------||-----0-------------------|
B||------------9--------------||-----------0-------------|
G||*-----9----------9-----9--*||--------------8----------|
D||*--------9----------9-----*||--------9----------9-----|
A||---7-----------------------||--9-------------------9--|
E||---------------------------||-------------------------|

-----------------------|------------------------|------------------------|
----------5----4-------|---------------0--------|---------------0--------|
----------6----6-------|----------2-------2-----|----------4-------4-----|
-------4--6---------6--|-------2-------------2--|-------2-------------2--|
--4-------4------------|--0---------------------|--0---------------------|
-----------------------|------------------------|------------------------|

--------------------------|
--------------------------|
--1--1--2--1--2--1--------|
--2-----------------2-----|
--2--------------------2--|
--------------------------|

(con intro hasta X)
Me hice cargo de tu luz

que desde afuera es tan hermosa


me vi hundido en lo azul

de todo el cielo de Mendoza


Seguí la ruta y caminé
                        (x)
cantando "A punto de caer"


(parte Z)
C#m B7add11 Me hice imagen de tu cruz
Adim C#m cortando todo el viento Zonda
Asus2 B7 tu noche apareció preciosa
Asus2 C#m Adim Cdim Adim Cdim (ver pasaje) y el día se mostró sin fin, sin fin (intro hasta x) Me hice cargo por mirar (x) colores de tu piel tan rosa, (igual qe parte Z) es duro olvidarme de vos en este trampolin de rocas igual me quedo con tu boca (pasaje) que sabe derretir dolor, dolor (intro hasta x) Fue necesaria tanta luz (x) para poder seguir tu sombra (parte z) me hice imagen de tu cruz cortando todo el viento Zonda tu noche apareció preciosa y el día se mostró sin fin, sin fin (Arpegio en E) Me hice cargo de tu luz Me hice cargo de tu luz |--7--8-- |-------- |-------- |--6--7-- trompetas |-------- |--0--0--
C#m B7add11 |--4----------------|--0----------------| |--5----------------|--4----------------| |--6----------------|--4----------------| |--6----------------|--4----------------| |--4----------------|--0----------------| |-------------------|-------------------|
Adim Asus2 B7 -------------------|-------------------|--2----------------| --7----------------|--0----------------|--0----------------| --5----------------|--2----------------|--2----------------| --7----------------|--2----------------|--1----------------| --6----------------|--0----------------|--2----------------| -------------------|-------------------|-------------------| (pasaje)
Adim -2------------------| -1------------------| -2------------------| -1------------------| -------------------| -------------------|
Cdim Adim Cdim --5----------------|--8----------------|--11----------------| --4----------------|--7----------------|--10----------------| --5----------------|--8----------------|--11----------------| --4----------------|--7----------------|--10----------------| -------------------|-------------------|--------------------| -------------------|-------------------|--------------------| (bueno, es dificil organizar las partes, ojala este bien, asi la saque saludos a todos.. dudas: joanemmanuel@hotmail.com)
Este fichero es trabajo propio de su transcriptor y representa su interpretación personal de la canción. El material contenido en esta página es
para exclusivo uso privado, por lo que se prohibe su reproducción o retransmisión, así como su uso para fines comerciales.

© LaCuerda.net · Aviso Legal · Privacidad