Acordes de Guitarra » L »Lisandro Aristimuño » Fecundación (te llamo sin parar) (Tab)

Fecundación (te llamo sin parar)
Lisandro Aristimuño

Letras, Notas, Punteos, Tablaturas y Acordes de Guitarra (Tabs & Chords)

  • Letra y Acordes
     G                    A7
       Desperté bajo las sábanas
    Fm4                   D/F#
       Que cubrieron toda mi niñez,
    Ebdimm  Gbdimm    Em
       Combatiendo fantasmas,
    A7                  Bm
       Enfrentando mis miedos,
    G                   F#7/C#
       Dando vida en la sombra,
    F#                    G
       En las noches sin voz.
    
    Desperté bajo las sabanas,
    Esperando amanecer,
    Rellenando los huecos
    Que dejaron mis ojos,
    Mientras ladran los perros
                 Em9
    Necesito tu vos.
    
  • Letra y Acordes
    F                   C     Fm                  F
    Desperte bajo las sabanas que cubrieron toda mi niñez
    Cdim               A#         C           F
    Combatiendo fantasmas, enfrentando mis miedos
    Dm                 A7      Ddim              F
    dando vida en las sombras, en las noches sin vos
    
                       C      Fm              F
    Desperte bajo las sabanas esperando amanecer
    Cdim             A#          C          F
    rellenando los huecos que dejaron mis ojos
    Dm                   A7       Ddim      Dm
    mientras ladran los perros necesito tu voz
    
    Dm F  C  A#
    Ah ah ah ah ah
    
    F               C
    Hoy ya no es lo mismo mi amor
    Dm            Ddim          Dm
    
  • Tablatura
    INTRO DE GUITARRA
    
    (fijense cuantas veces lo hace antes de arrancar ya,
    repite varias veces
    las dos primeras partes y el último es
    el desenlace ya para empezar a canta)
    
    |---0-5-4--2-0--5----4---2---0----------|
    |-2----------------7---5---4------------|
    |---------------------------------------|
    |---------------------------------------|
    |-0--------2-4--5----4---2---0----------|
    |---------------------------------------|
    
    |---0-5-4--2-0--5--7-4---2-4-0----------|
    |-2--------------------5----------------|
    |---------------------------------------|
    |---------------------------------------|
    |-0--------2-4--5----4---2---0----------|
    |---------------------------------------|
    
    
    
    |-0-------------------------------------|
    |---4----4-2-0--2-0---------------------|
    |-----6-------------3-------------------|
    |---------------------------------------|
    |-4------2------1-----------------------|
    |---------------------------------------|
  • +
    ¡Colabora con nosotros!
    Envíanos tu versión de esta canción

Letra de Fecundación (te llamo sin parar)
Desperté bajo las sábanas
Que cubrieron toda mi niñez,
Combatiendo fantasmas,
Enfrentando mis miedos,
Dando vida en la sombra,
En las noches sin voz.
Desperté bajo las sabanas,
Esperando amanecer,
Rellenando los huecos
Que dejaron mis ojos,
Mientras ladran los perros
Necesito tu vos.
Hoy ya no es lo mismo, mi amor
El día se hace noche si te vas
Y mientras yo, te llamo sin parar, te llamo sin parar
Te llamo sin parar. Te llamo sin parar. Te llamo sin parar.
Te llamo sin parar. Te llamo sin parar. Te llamo sin parar.
Acordes para el tema:



© LaCuerda.net · Aviso Legal · Privacidad