Acordes de Guitarra » L »la Ley » Libertad (Tab)

Libertad
la Ley

Letras, Acordes y Tabs para Guitarra, Bajo y Ukulele

  • intro: B G A  B G A
    
    B                     
    Se me ha ido de las manos
           G           A
    Algo trágico e inocente
    B
    Nadie cubrió mis heridas
          G            A           B G A  
    Y lo mágico se convirtió en vano
    
    B
    El silencio fue mi prenda
            G            A
    De los sábados llenos de ausencia
    B
    Escribí mi pesadilla
            G         A
    Y la deshoje donde decía
    
    
  • intro: B G A
    
    B                     
    Se me ha ido de las manos
    G                     A
    Algo trágico e inocente
    B
    Nadie cubrió mis heridas
    G                  A           B   
    Y lo mágico se convirtió en vano
    
    B
    El silencio fue mi prenda
    G              A
    De los sábados llenos de ausencia
    B
    Escribí mi pesadilla
    G                      A
    Y la deshoje donde decía
    
    
  •   B      G           A          B      G           A          B
    e-2~-----3-----2-0---2-----0----2~-----3-----2-0---2-----0----2~--
    b-4~---0---0-0----(0)--0-0---0--4~---0---0-0----(0)--0-0---0--4~-- = 0:05
    g-4~----------------------------4~----------------------------4~--
    d-4~----------------------------4~----------------------------4~--
    a-2~----------------------------2~----------------------------2~--
    e-2~----------------------------2~----------------------------2~--
    
    
    e----3-----2-0---2-----0---0-------
    b--0---0-0----(0)--0-0---0---0-----
    g---------------------------------- = 2:05 tambien a los 2:16
    d----------------------------------
    a----------------------------------
    e----------------------------------
    
    B
    Se me ha ido de las manos
           G           A
    Algo trágico e inocente
    
  • +
    ¡Colabora con nosotros!
    Envíanos tu versión de esta canción

Letra de Libertad
Se me ha ido de las manos
Algo trágico e inocente
Nadie cubrió mis heridas
Y lo mágico se convirtió en vano
El silencio fue mi prenda
De los sábados llenos de ausencia
Escribí mi pesadilla
Y la deshoje donde decía
Es una lastima
por si no han notado
Es una lastima
mis ojos cerrados
Sueñan encontrar……..
¡Libertad! Yo quiero ¡libertad!
¡Libertad! Tan solo ¡libertad!
Transformando mi impotencia
Y mi dignidad amedrentada
En un grito de conciencia
Que nunca mas calle por experiencia
Y fue una lastima
por si no han notado
Fueron lagrimas
con ojos sellados
Sueñan encontrar……..
¡Libertad! Yo quiero ¡libertad!
¡Libertad! Tan solo ¡libertad!
En la oscuridad no hay paz
no puedo ver
Me tropiezo con hostilidad
no se muy bien
Si hay que esperar la luz o enfrentarse
¡Libertad! Yo quiero ¡libertad!
¡Libertad! Tan solo ¡libertad!
¡Libertad! ¡Libertad! ¡Libertad!




[Libertad chords][Libertad cifra]
© LaCuerda.net · aviso legal · privacidad · es · en · pt · contacto
DINAMICO