Acordes de Guitarra » L »la Ley » Everytime (Tab)

Everytime
la Ley

Letras, Notas, Punteos, Tablaturas y Acordes de Guitarra (Tabs & Chords)

  • Letra y Acordes
    INTRO:  Bm   Gm   D
    
       Bm        Gm           D   (RIFF INTRO)
         EVERYTIME IS TIME TO GO
                  Em                               A7
         IN MANY WAYS EVERY DREAM LOOK`S LIKE A LONG ROAD
                    Em                           A7
         WITH LITTLE TIME I WILL FLY WITHIN YOUR SKY
    
       Bm        Gm           D
         EVERYTIME IS TIME TO GO,
       Bm          Gm             D
         EVERYWHILE IS FOR US TO HOLD
    
                   Em                         A7
         ALONG THE WAY YOUR DESTRUCTION IS MY LIFE
                     Em                           A7
         WITH LITTLE TIME I WILL FLY DEEP IN YOUR SMILE
    
        Bm              Gm         D
    
  • Tablatura
    |--2--3---2-------2--------2--3--2-------------------------|
    |--3--3---3-----3---3------3--3--3-------------------------|
    |--4--0---2--2--------2----4--0--2---2-2s4-4b--------------|
    |--4--0---0----------------4--0--0-------------------------|
    |--2--2---0----------------2--2--0-------------------------|
    |--2--3--------------------2--3----------------------------|
    
    
    'in many ways...every dream is like a long road'
    (riff 1a)
    |---------------------------------------------|
    |---------------------------------------------|
    |---12b11v--11v11v11v-11v11v--11v-11v---------|
    |---------------------------------------------|(x2)
    |---------------------------------------------|
    |---------------------------------------------|
    
    (riff 1b) 
    |-------------------------------------|
    |-------------------------------------|
    
  • +
    ¡Colabora con nosotros!
    Envíanos tu versión de esta canción

Letra de Everytime
EVERYTIME IS TIME TO GO
IN MANY WAYS EVERY DREAM LOOK`S LIKE A LONG ROAD
WITH LITTLE TIME I WILL FLY WITHIN YOUR SKY
EVERYTIME IS TIME TO GO,
EVERYWHILE IS FOR US TO HOLD
ALONG THE WAY YOUR DESTRUCTION IS MY LIFE
WITH LITTLE TIME I WILL FLY DEEP IN YOUR SMILE
CAUSE EVERYTIME IS TIME TO GO
AND EVERYWHILE FOR US TO HOLD
IN MANY WAYS EVERY DREAM LOOK`S LIKE A LONG ROAD
IS MY DESIRE TO PROTECT YOUR LIPS WITH MINE...
WITH MINE...
DON`T BE SAD AND LONELY THERE`S A WHOLE LIFE
WAITING OUT YOUR DOOR... DON`T BE SAD
I`M ON THE WAY TO LEAVE EVERYTHING BEHIND
FOR MANY HOURS WE`LL BE FUGITIVES OF TIME
CAUSE EVERYTIME IS TIME TO GO
AND EVERYWHILE IS FOR US TO HOLD
EVERYTIME IS TIME TO GO
AND EVERYWHILE IS FOR US TO HOLD
EVERYTIME.-
'RIFF INTRO'
'PUNTEO CORO (I)'
'PUNTEO CORO (II)'
''''OJO'''': CORO = I y II 2 VECES
“SOLO (1)”
“SOLO (2)”
FRUGO.-



© LaCuerda.net · Aviso Legal · Privacidad