Acordes de Guitarra » L »la Ley » En Casa (Tab)

En Casa
la Ley

Letras, Acordes y Tabs para Guitarra, Bajo y Ukulele

  • RE  - D
    MIm - E
    DO  - C
    LAm - A
    SOL - G
    
    =================================================
    
    Intro: RE - MIm
    
    RE          MIm
    Te invito a pasar 
    RE          MIm
    Te invito a volar
    RE              MIm
    En mi vida hay soledad
    RE            MIm
    Y en tus ojos poesía
    
    DO            MIm
    
  • D# - Fm
    
    e|--------------------------------------------------------------|
    B|--------------------------------------------------------------|
    G|--------------------------------------8----10-9h10-12s13-12-8-|
    D|----------------------6h8-8s10-8-8-10---10--------------------|
    A|-----6s10-6-----6---8-----------------------------------------|
    E|-6-8--------6-8---8-------------------------------------------|
    
    e|------------------------------------11----13-|
    B|--------------8h9-11-11s13-11-11-13----13----|
    G|------8----10--------------------------------|
    D|-8-10---10-----------------------------------|
    A|---------------------------------------------|
    E|---------------------------------------------|
    
    D#          Fm
    Te invito a pasar
    D#          Fm
    Te invito a volar
    
  •                   D               Em              D                 Em
    e--------------------------------------------------------------------------| 
    B--------------------------------------------------------------------------| 
    G--------------------------------------------2h4--2----4-4---7-4---7/9-----| 
    D------------2h4-------------------------5-5-------------------------------| 
    A-----5-5---------5----2-2--5-2--5/7---------------------------------------|
    E--------------------------------------------------------------------------|
    
                     D                 Em                 D                 Em
    e---------------------------------------------------------------10-10---12-|
    B--------------------------------------8--10-8--10/12-10--12-12-------12---|
    G--9-9---11h12--11/7-7------------7h9--------------------------------------|
    D-----------------------9-9-12-9-------------------------------------------|
    A--------------------------------------------------------------------------|
    E--------------------------------------------------------------------------|
    
    
    D              Em
    Te invito a pasear
    D               Em
    
  • +
    ¡Colabora con nosotros!
    Envíanos tu versión de esta canción






[En Casa chords][En Casa cifra]
© LaCuerda.net · aviso legal · privacidad · es · en · pt · contacto
DINAMICO