Acordes de Guitarra » L »Leo Mattioli » Tramposa y mentirosa (Tab)

Tramposa y mentirosa
Leo Mattioli

Letras, Acordes y Tabs para Guitarra, Bajo y Ukulele

  •     Bm    Em           F#          Bm
    Tramposa,    algo altanera y mentirosa
     G          A               D
        en el amor, la mas tramposa
     Em                       F#
       que juega siempre al amor
                         Bm
    de una manera misteriosa
    
     Em          F#           Bm
       Algo agresiva y muy mimosa
    G          A           D
        aventurera de mil cosas
     Em                       F#
        y sabe mucho mas que yo..
    
                           Em
    Que vivo loco por tus besos
                     Bm
    de tu boca vivo preso
    
  •      Bm   G            A           Bm
    Tramposa,    algo altanera y mentirosa
     G          A               D
        en el amor, la mas tramposa
     Em                      F#
       que juega siempre al amor
                         Bm
    de una manera misteriosa
    
     G           A            Bm
       Algo agresiva y muy mimosa
    G          A           D 
        aventurera de mil cosas
     Em                       F#
        y sabe mucho mas que yo..
    
                           Em
    Que vivo loco por tus besos
                     Bm
    de tu boca vivo preso
    
  • E------------------------------
    B------------------------------
    G------------------------------
    D-----------------5-5----------
    A---9-9----7-7-9------9-7-9----
    E--------7------------------7-7
    
    
    E-----------------------------------
    B-----------------------------------
    G-----------------------------------
    D-----------------------------------
    A-7-7-9-10-10-9-7-12------------------
    E-------------------10-10-----------
    
    E---------------------/--------------------
    B---------------------/--------------------
    G---------------------/--------------------
    D-9-9-11-12-12-11-9-8-/-9-7----------------
    A---------------------/-----10-9-7------9--
    
  • +
    ¡Colabora con nosotros!
    Envíanos tu versión de esta canción

Letra de Tramposa y mentirosa
Tramposa, algo altanera y mentirosa
en el amor, la mas tramposa
que juega siempre al amor
de una manera misteriosa
Algo agresiva y muy mimosa
aventurera de mil cosas
y sabe mucho mas que yo..
Que vivo loco por tus besos
de tu boca vivo preso
condenado a la locura
de morir por tu hermosura
Quisiera devorarte a mi manera
y que en mis brazos tu te mueras
suplicando por mi amor




[Tramposa y mentirosa chords][Tramposa y mentirosa cifra]
© LaCuerda.net · aviso legal · privacidad · es · en · pt · contacto