Acordes de Guitarra » L »Leo García » Isla (Tab)
  • Letra y Acordes
      DO     RE        MIm
    Estoy peinando mis pies
      DO     RE        MIm
    Mientras pasan los meses
      DO     RE        MIm
    El agua en punta de pies
      DO     RE        MIm
    Mezcla la arena y los peces.
    
    
      DO         RE           MIm
    Quiero estar listo para el mundo
      DO             RE       SI 
    Si hay un mundo listo para mi
      DO     RE    MIm
    Soy una isla fuera de mi
              DO     RE        MIm
    Vos no salgas a buscarme
      DO     RE        MIm
    Soy una isla fuera de mi
    
  • Tablatura
    B)-----------------------------------------------------------|
    G)---8--------------------5----------------------------------|
    D)------8---5----------------8----5--7--8----5--7--8---------|
    A)--------------6---8----------------------------------------|
    E)-----------------------------------------------------------|
    
    E)-----------------------------------------------------------|
    B)-----------------------------------------------------------|
    G)---8--------------------5------5^7--5-----5----------------|
    D)------8---5----------------8-----------8-----8-------------|
    A)--------------6---8----------------------------------------|
    E)-----------------------------------------------------------|
    
    E)-----------------------------------------------------------|
    B)-----------------------------------------------------------|
    G)---8--------------------5----------------------------------|
    D)------8---5----------------8----5--7--8----5--7--8---------|
    A)--------------6---8----------------------------------------|
    E)-----------------------------------------------------------|
    
    
  • +
    ¡Colabora con nosotros!
    Envíanos tu versión de esta canción

Letra de Isla
Estoy peinando mis pies
Mientras pasan los meses
El agua en punta de pies
Mezcla la arena y los peces.
Quiero estar listo para el mundo
Si hay un mundo listo para mi
Soy una isla fuera de mi
Vos no salgas a buscarme
Soy una isla fuera de mi
Un gran incendio de vidrios:
Donde el mar es espejo del sol
Donde el sol es espejo del mar
Y yo me despejo
Y yo me despejo
Antes de que empiece enero
Y todo vuelva a empezar
Ahha haa haaah aahha hhaa
Estoy peinando mis pies
Cuidando luna y rincones
El agua en punta de pies
Pega perla en los talones
Quiero estar listo para el mundo
Si hay un mundo listo para mi
Soy una isla fuera de mi
Vos no salgas a buscarme
Soy una isla fuera de mi
Un gran incendio de vidrios:
Donde el mar es espejo del sol
Donde el sol es espejo del mar
Y yo me despejo
Y yo me despejo
Antes de que empiece enero
Y todo vuelva a empezar
Ahha haa haaah aahha hhaa
*** Si te gusta el pop podes visitar: www.sincronico.net ***



© LaCuerda.net · aviso legal · privacidad · contacto