Acordes de Guitarra » K »Kudai » Lejos de la ciudad (Tab)

Lejos de la ciudad
Kudai

Letras, Acordes y Tabs para Guitarra, Bajo y Ukulele

  • ---------------------------
    ----0------0--------0------
    --3------3--------3---3----
    -1--------------4-------4--
    ------4------2-------------
    ---------------------------
    El acorde * es el siguiente...
    
    ----
    -7--
    -6--
    -4--
    -6--
    ----
    
     FA#
    El mismo lugar
       LA#m
    Las calles y el mar
       SI             SIm             FA#
    
  • ||--------------------------------------------------------||
    ||-----0-----0-------0-----------0-----0-------0--------0-||
    ||---3-----3-------3---3-------3-----3-------3---3------3-||
    ||-1-------------4-------4---1-------------4-------4----4-||
    ||-------4-----2-----------2-------4-----2-----------2--2-||
    ||--------------------------------------------------------||
    
    
     FA#
    El mismo lugar
       LA#m
    Las calles y el mar
       SI             SIm             FA#
    La luna ilumina las horas de mi soledad
      DO#  SOL#m  SI SIm
    ¿Y donde estas?
    
          FA#
    Aun puedo escuchar
        LA#m
    
  •  FA#
    El mismo lugar
       LA#m
    Las calles y el mar
       SI             SIm             FA#
    La luna ilumina las horas de mi soledad
      DO#  SOL#m  SI SIm
    ¿Y donde estas?
    
    
    I-----------------------------I
    I-----7-----7--------6----6---I
    I--------6--------------6-----I
    I-----------------------------I
    I-----------------------------I
    I-----------------------------I
    Aun puedo escuchar   Tus pasos tu andar
    
         SI            SIm
    El viento me trae los besos que hoy ya no
    
  • E----5-5-7-5-5-7-5-5-5-7-8-7-5-5-5-7-5-5-7-5-5-5-7-8-7-5-
    B--------------------------------------------------------
    G--------------------------------------------------------
    D--------------------------------------------------------
    A--------------------------------------------------------
    E--------------------------------------------------------
    
     LAm
    El mismo lugar
    FA
    Las calles y el mar
    DO               SOL                 RE
    La luna ilumina las horas de mi soledad
      LAm   FA   DO
    ¿Y donde estas?
    
    LAm                  FA
    Aun puedo escuchar   Tus pasos tu andar
    DO                SOL
    El viento me trae los besos que hoy ya no
    
  • +
    ¡Colabora con nosotros!
    Envíanos tu versión de esta canción

Letra de Lejos de la ciudad
El acorde * es el siguiente...
-7--
-6--
-4--
-6--
El mismo lugar
Las calles y el mar
La luna ilumina las horas de mi soledad
¿Y donde estas?
Aun puedo escuchar
Tus pasos tu andar
El viento me trae los besos que hoy ya no
Estarán ¿Y donde estas?
Yo aquí te espero…
Y aun recuerdo ese momento
Tus besos al despertar
La brisa el viento, la luz del puerto
Tan lejos de la ciudad…
El frió se irá, la luz volverá Y espero que entonces
El tiempo nos vuelva a encontrar
¿Donde estarás?
Yo aquí te espero…
Y aun recuerdo ese momento
Tus besos al despertar
La brisa, el viento, la luz del puerto
Tan lejos de la ciudad…
Y aun recuerdo ese momento
Tus besos al despertar
La brisa, el viento, la luz del puerto
Tan lejos de la ciudad
Tan lejos de la ciudad
Tan lejos de la ciudad
Tan lejos de la ciudad…




[Lejos de la ciudad chords][Lejos de la ciudad cifra]
© LaCuerda.net · aviso legal · privacidad · es · en · pt · contacto