Acordes de Guitarra » K »Kudai » Llévame (Tab)

Llévame
Kudai

Letras, Acordes y Tabs para Guitarra, Bajo y Ukulele

  •    Gm  D#  A#  F7   F  Am   C   E
    1|--3-|-3-|-1-|-1-|-1-|-0-|-0-|-0-|
    2|--3-|-4-|-3-|-1-|-1-|-1-|-1-|-0-|
    3|--3-|-3-|-3-|-2-|-2-|-2-|-0-|-1-|
    4|--5-|-1-|-3-|-1-|-3-|-2-|-2-|-2-|
    5|--5-|-1-|-1-|-3-|-3-|-0-|-3-|-2-|
    6|--3-|-1-|-1-|-1-|-1-|-0-|-0-|-0-|
    
    INTRO:
    
    Gm  D#  A#  F7-F
    
    Gm
    Mírame,
          D#           A#       F7-F
    quien sabe a donde llegare
    Gm
    Tómame,
           D#          A#      F7-F
    no hay suelo ya donde caer
    
  • INTRO:/Gm/Eb/Bb/D7/
    
    
        Bb            Bb                Gm     Gm
      Mírame  quien   sabe  a   donde  llegare
    
    
    
      Bb          Bb                   D7         D7
      Tómame  no  hay  suelo   ya    donde   caer
    
    
    
    Gm
    Ven
    
          Eb      Bb
    Llévame del dolor
    
                 D7               Gm
    
  • e--------------13----------------| G-5-s-7--7-7-s-8-8-8---|
    B----11-10-11-----10-11----11----|
    G-10--------------------10----10-| G-5-s-7-7-5------------|
    D--------------------------------|
    A--------------------------------| G-5-s-7-7-7-s-8-8-8-10-|
    E--------------------------------|
    
    e--------------13----10----8-----|
    B----11-10-11-----10-------------|
    G-10--------------------10----10-|
    D--------------------------------|
    A--------------------------------|
    E--------------------------------|
    
    e----------------13----------------8----10----|
    B------11-10-11-----10-11----11---------------|
    G---10--------------------10----10---10----10-|
    D---------------------------------------------|
    A---------------------------------------------|
    E---------------------------------------------|
    
  • //SOLm RE# LA# RE//: x2
    
    (Guitar 2)
    E |--------------------------------------------------------------|
    B |-------11-10-11--16---10-11-------12--------------------------|
    G |-8h9---------------------------10-----10----------------------|
    D |--------------------------------------------------------------|
    A |--------------------------------------------------------------|
    E |--------------------------------------------------------------|
    
    E |--------------------------------------------------------------|
    B |-------11-10-11--16--10-15----14------------------------------|
    G |-8h9-----------------------10----10---------------------------|
    D |--------------------------------------------------------------|
    A |--------------------------------------------------------------|
    E |--------------------------------------------------------------|
    
    E |--------------------------------------------------------------|
    B |-------11-10-11---16---11-12----13----14----15-----15-15h16---|
    G |-8h9-------------------------10----10----11----11-------------|
    
  •           Gm                 D#               A#
    E |----------------13----------------------------------13--------|
    B |-------11/10-11-----10/11-11---11----------11/10-11-----10/11-|
    G |-----------------------------8----8---------------------------|
    D |-11/12-------------------------------11/12--------------------|
    A |--------------------------------------------------------------|
    E |--------------------------------------------------------------|
         F               Gm                 D#        A#           D
    E |-10------8-----------------13------------------8----11--------|
    B |------------------11/10-11-----10/11-11---11-----------6/11---|
    G |-----10---------------------------------8----8---11-----------|
    D |------------11/12---------------------------------------------|
    A |--------------------------------------------------------------|
    E |--------------------------------------------------------------|
    
    (Aca va solo el sgte arpegio) Solo marca la guitarra 2
    (A)
    Mírame,            (B)             Arpegios : (A) (B) (C)
    quien sabe a donde llegare
    (A)
    
  •    Gm         D#           A#          D
      ======/    x=====/     ======/     ======/
      ||||||     ||||||      oooooo      ||||||
      ||||||     ||||||      ||||||      |||o|o
      oooooo     oooooo      ||ooo|      ||||o|
      ||||||     ||||o|      ||||||      ||||||
      |oo|||     ||o|||      ||||||      ||||||
      ||||||     |o||||      ||||||      ||||||
    
       Am          F           C           E
      ======/    ======/     ======/     ======/
      ||||o|     oooooo      ||||o|      |||o||
      ||oo||     |||o||      ||o|||      |oo|||
      ||||||     |oo|||      |o||||      ||||||
      ||||||     ||||||      ||||||      ||||||
      ||||||     ||||||      ||||||      ||||||
    
    El teclado el intro lo puedes hacer
                       Gm      D#      A#      D
    E |----------------------------------------2----|
    
  • +
    ¡Colabora con nosotros!
    Envíanos tu versión de esta canción

Letra de Llévame
1|--3-|-3-|-1-|-1-|-1-|-0-|-0-|-0-|
2|--3-|-4-|-3-|-1-|-1-|-1-|-1-|-0-|
3|--3-|-3-|-3-|-2-|-2-|-2-|-0-|-1-|
4|--5-|-1-|-3-|-1-|-3-|-2-|-2-|-2-|
5|--5-|-1-|-1-|-3-|-3-|-0-|-3-|-2-|
6|--3-|-1-|-1-|-1-|-1-|-0-|-0-|-0-|
Mírame,
quien sabe a donde llegare
Tómame,
no hay suelo ya donde caer
Ven
Llévame del dolor
que esta oscuro y no oigo tu voz
que la noche me va a matar
Tómame,
Que el mundo se vino a mis pies
Llévame,
Que hoy ya no me quiero esconder
Ven
Llévame del dolor
Que esta oscuro y no oigo tu voz
Que la noche me va a matar
Dame un beso
Algo que me haga al fin regresar
Y llorar en tus brazos al final
Que aun hay tiempo para escapar...
(AQUÍ ENTRA EL SOLO DE LA GUITARRA ELECTRICA)
Ven, llévame del dolor naja..
Ven, llévame del dolor... naja..
Nananaa Llévame, llévame, llévame
Ven, llévame...
BUENO ESO ES TODO, ESPERO QUE LA PUEDAN SACAR..
NO ESTA DIFICIL..
SI TIENEN DUDAS, PREGUNTAS, QUEJAS O ALGUNA PETICION.
BYE, SUERTE CON LA CANCION.
Temas transcritos de Kudai por mi:
< Tal vez >
< Ya nada queda >
< Sin despertar >
<< Tú >>
< Hoy no estas >




[Llévame chords][Llévame cifra]
© LaCuerda.net · aviso legal · privacidad · es · en · pt · contacto