Acordes de Guitarra » K »Kraken » Bajo los escombros (Tab)

Bajo los escombros
Kraken

Letras, Acordes y Tabs para Guitarra, Bajo y Ukulele

  • Les mando los principales riff de este tema bien cañero
    
    E---------------------------------------------4x
    B---------------------------------------------
    G---------------------------------------------
    D---------------------------------------------
    A---------------------------------------------
    D-0-0-0-0-0-0-2-0-3-0-0-0-0-0-0-3-0-5-0-0-0-0-
    pm...........................................
    
    
    E------------------------------------------2x
    B------------------------------------------
    G------------------------------------------
    D-0-----------1-----------3----------------
    A-0-----------1-----------3----------------
    D-0-0-0-0-3-0-1-1-1-1-5-0-3-3-3-3-6-6p3-5--
    
    Aqui comienza a cantar:
    
    
    E-----------------------------------6x
    B-----------------------------------
    G-------5-5-------------------------
    D-0-----5-5-------------------------
    A-0-----3-3--11111111-00000000------
    D-0-3-2-----------------------------
     El camino esta lleno de piedras y...
    
    E--------------------------------
    B-------------------
  • +
    ¡Colabora con nosotros!
    Envíanos tu versión de esta canción






[Bajo los escombros chords][Bajo los escombros cifra]
© LaCuerda.net · aviso legal · privacidad · es · en · pt · contacto
DINAMICO