Acordes de Guitarra » K »Kjarkas » Wayayay (Tab)

Wayayay
Kjarkas

Letras, Acordes y Tabs para Guitarra, Bajo y Ukulele

  • LAm                          REm
    Voy a contarte hoy mi triste pena,
    FA               SOL         LAm
    la soledad que llevo en mi alma
    
    LAm                          REm
    Voy a contarte mis tristes desengaños,
    FA                 SOL           LAm
    de ilusiones y de sueños que he vivido
    
    DO                         REm
    Entre montañas, valles he nacido,
    FA               SOL            LAm
    me acunaron esos huaynos en su encanto
    
    DO                               REm
    Y al florecer mi tierra en su charango
    FA              SOL              LAm
    vi crecer las zampoñas con el viento
    
    
  • Es mi primera transcripción ojala que les guste para
    cualquier cosa mi correo es
     tu_mejor_amigo_eloso@hotmail.com
    Capo 5 traste
    e-----------0-------0---0-----3----0----3----0-----------
    b------------------------------------------------0-------
    g--------------------------------------------------0-----
    d--------------------------------------------------------
    a----2--------------2---2-----2----2----2----2-----------
    e--------------------------------------------------------
    
    e-------------------------------------------------------
    b-------2---0---2---------3--3------2--2------2---------
    g-------------------------------------------------------
    d-------------------------------------------------------
    a---0------------------0---------0---------0------------
    e-------------------------------------------------------
    
    e--------0-----0-0-3----------------2/0-----3--0---0----
    b--------2-----------------------3------3---------------
    g--------0--------------------2-------------------------
    d------
  • +
    ¡Colabora con nosotros!
    Envíanos tu versión de esta canción

Letra de Wayayay
Voy a contarte hoy mi triste pena,
la soledad que llevo en mi alma
Voy a contarte mis tristes desengaños,
de ilusiones y de sueños que he vivido
Entre montañas, valles he nacido,
me acunaron esos huaynos en su encanto
Y al florecer mi tierra en su charango
vi crecer las zampoñas con el viento
way, way, waya ya ya yay, wayayay
way, way, waya yay, wayayayayayay wayayay




[Wayayay chords][Wayayay cifra]
© LaCuerda.net · aviso legal · privacidad · es · en · pt · contacto