Acordes de Guitarra » K »Kjarkas » Ay Corazón (Tab)

Ay Corazón
Kjarkas

Letras, Acordes y Tabs para Guitarra, Bajo y Ukulele

  • MIm-LAm-REm-SOL-MI 5-MIm
    
                RE      SOL
    Ay corazón, extraño ser
                     MI 5        MIm
    Impredecible, caprichoso y soñador
           LAm   RE      SOL         MI 5
    Ay corazón, sentimental, apasionado
                        MIm
    Sordo, ciego en el amor
               LAm
    Tus amores son batallas
    RE               SOL
    que siempre libraste
                           MI 5
    muchas veces victorioso
                  MIm 
    o herido quedaste
    MIm            LAm
    A quien crees que tu engañas,
    
  • MIm LAm SOL  MIm LAm SI7 MIm
    MIm LAm SOL  MIm LAm SI7 MIm
    
    MIm    LAm    RE    SOL 
    Ay corazón, extraño ser
     MIm    LAm         SI7        MIm
    Impredecible, caprichoso y soñador
           LAm   RE     SOL 
    Ay corazón, sentimental,
    MIm    LAm         SI7          MIm
    apasionado, Sordo, ciego en el amor
    MIm        LAm
    Tus amores son batallas
    RE7           SOL 
    que siempre libraste
    MIm              LAm
    muchas veces victorioso
    SI7         MIm
    o herido quedaste
                  LAm
    
  •    E|---0-3-2-0-------0-3-2----2-3-5-------|-------------|
       B|--0--------1---1------------------1-0-|-------------|
       G|-0-----------2------------------------|-------------|
       D|--------------------------------------|-------------|
       A|--------------------------------------|-------------|
       E|--------------------------------------|-------------|
    
       E|----------------------------0----2-0--|
       B|-----0-3---1-0-----1----0-----4-------|
       G|---0-------------2----2---------------|
       D|-2------------------------------------|
       A|--------------------------------------|
       E|--------------------------------------|
    
    
     Guitarra 2.
    
       E|--0--7----------------7-5--5-7/8--5-3-|-------------|
       B|-0--8--10-8--------8------------------|-------------|
       G|------------9----9--------------------|-------------|
    
  • +
    ¡Colabora con nosotros!
    Envíanos tu versión de esta canción

Letra de Ay Corazón
Ay corazón, extraño ser
Impredecible, caprichoso y soñador
Ay corazón, sentimental, apasionado
Sordo, ciego en el amor
Tus amores son batallas
que siempre libraste
muchas veces victorioso
o herido quedaste
A quien crees que tu engañas,
que bien te conozco
siempre fuimos compañeros,
complices en todo
¿Qué te pasa corazón?
te noto callado
un amor, otro capricho
tu sueño ha quitado
No le temes ni a la muerte
corazón valiente,
pero se que vos le temes
a la soledad
Ay corazón, extraño ser.....
Dedicado a todos aquellos que nos hemos enamorado, y tanto
ganado como perdido en el amor a una mujer como ninguna.
Jairobenjumea@latinmail.com




[Ay Corazón chords][Ay Corazón cifra]
© LaCuerda.net · aviso legal · privacidad · es · en · pt · contacto