Acordes de Guitarra » K »El Kanka » Querría (Tab)

Querría
El Kanka

Letras, Acordes y Tabs para Guitarra, Bajo y Ukulele

  • ----0--2h-3----|-------------------|---------------|--------------
    ----0--0--0----|--5--4--1--0-------|---------------|--------------
    ---------------|-----5--2--0-------|---------------|-----------2--
    ---------------|--4------------4---|-----5--4h5h4--|-----1--4-----
    ---------------|--------------(3)--|--2------------|--2-----------
    ---------------|-------------------|---------------|--------------
    
    Acordes para la intro:
    
    Am        xx7555
    Gmaj7     xx5777
    G7        353433
    D#dim     xx4545
    C#dim/F#  2xx323
    B7*       xx120x
    
    (Fill 1) - Am - B7 - Em
    (Fill 1) - Am - B7 - Em - Bdim
    
    (Fill 1) - Am - Gmaj7 - G7 - D#dim - C#dim/F#
    
  • Am7       xx5555
    B7        224242
    Bdim7     x2313x
    D6        555777
    Cm6       333545
    
    
    INTRO:
    
    (Fill 1) - Am7 - B7 - Em
    (Fill 1) - Am7 - B7 - Em - Bdis7
    
    (Fill 3) - Am7 - D6 - G7 - Cm6 - F#7
    (Fill 2) - Em - B7 - B7/F# - Em
    
    
    Em                      Am
    Querría sujetarte las mañanas,
      B11    B11/F#           C9            B7  B7/F#
    hacer malabarismos con tu voz y con mi voz.
    
  • e|0--2/3--5--5|--2--2|--0--0|---
    B|0--4/5--5--5|--4--4|--0--0|-0-
    G|------------|--2--2|--0--0|---
    D|------------|------|------|-2-
    A|--------0---|-2----|------|---
    E|------------|------|-0----|---
    
    e|-0--2/3--5--5|--2--2|--0--0|-1--0--2/3--5--5|--7--7|--3--3|--5--5|
    B|-0--4/5--5--5|--4--4|--0--0|-3--0--4/5--5--5|--7--7|--5--5|--4--4|
    G|-------------|--2--2|--0--0|-1--------------|--7--7|--4--4|--5--5|
    D|-------------|------|------|-3--------------|------|------|------|
    A|---------0---|-2----|------|-2----------0---|-5----|------|-3----|
    E|-------------|------|-0----|----------------|------|-3----|------|
    
    e|-3--2(3)-----------------0-|-----0---0-------3--2----|
    B|-2--2----5--4--1--0------0-|-0---0---0----0--------4-|
    G|-3--3----------------2---0-|-0---0---0---------------|
    D|---------5--4--2--1--------|-----------------5--4--1-|
    A|---------------------3-----|--2-----------2----------|
    E|2-----------------------0--|------2---0--------------|
    
  • +
    ¡Colabora con nosotros!
    Envíanos tu versión de esta canción

Letra de Querría
Acordes para la intro:
(Fill 1) - Am - B7 - Em
(Fill 1) - Am - B7 - Em - Bdim
(Fill 1) - Am - Gmaj7 - G7 - D#dim - C#dim/F#
(Fill 2) - Em - B7 - B7/F# - (Fill 3) - B7*
Querría sujetarte las mañanas,
hacer malabarismos con tu voz y con mi voz.
Querría abrirte todas las ventanas
pa' que nos diese la brisa del mar en el colchón
Querría festejar tus alegrías,
sufrir tus melancolías
y besarte en el corazón.
Querría guardar esta melodía
y escribirte una canción
con todo lo que querría.
Si yo pudiera,
si me dejaras,
si me atreviera,
si el cielo hablara
te diría que pierdo las ganas de odiar
si acomodo mis pasos a tu caminar
y que el mundo contigo se ve menos enfermo,
que ya es primavera en el corte inglés,
que he pedido una caña y me han puesto tres,
que va a ser que se ha puesto de moda el amor otra vez.
(Fill 1) - Am - B7 - Em
(Fill 1) - Am - B7 - Em - Bdim
(Fill 1) - Am - Gmaj7 - G7 - D#dim - C#dim/F#
(Fill 2) - Em - B7 - B7/F# - (Fill 3) - B7*
Querría traducirte la mirada,
pararme en tu parada y plantarme en tu jardín
y protagonizar tus carcajadas
y que mis madrugadas fuesen todas para ti.
Querría salpimentarte los días,
rebuscarte las manías
y darle armonía a tu son.
Querría que toda la poesía
se rindiera ante la rima de tu vida con la mía.
Si yo pudiera,
si me dejaras,
si me atreviera,
si el cielo hablara
te diría que pierdo las ganas de odiar
si acomodo mis pasos a tu caminar
y que el mundo contigo se ve menos enfermo,
que ya es primavera en el corte inglés,
que he pedido una caña y me han puesto tres,
que va a ser que se ha puesto de moda el amor otra vez.
Que va a ser que se ha puesto de moda el amor otra vez.
Que va a ser que se ha puesto de moda el amor otra vez.
(Fill 1) - Am - B7 - Em
(Fill 1) - Am - B7 - Em - Bdim
(Fill 1) - Am - Gmaj7 - G7 - D#dim - C#dim/F#
(Fill 2) - Em - B7 - B7/F# - (Fill 3) - B7*
Resto de acordes
En los acordes de la forma X/Y la tónica se sustituye por Y.




[Querría chords][Querría cifra]
© LaCuerda.net · aviso legal · privacidad · es · en · pt · contacto