Acordes de Guitarra » J »Julio Jaramillo » No me toquen ese vals (Tab)

No me toquen ese vals
Julio Jaramillo

Letras, Acordes y Tabs para Guitarra, Bajo y Ukulele

  •   Em          B7           Em
    Me estoy acostumbrando a no mirarte,
          E7                            Am
    me estoy acostumbrando a estar sin ti,
                  B7                      Em
    ya no te necesito, tu ya no me haces falta,
                        B7                      Em
    que bien se está solito, que bien se vive así.
          Em          B7           Em
    Me estoy acostumbrando a no mirarte
          Em          B7                E
    me estoy acostumbrando a estar sin ti.
    
    CORO
                     E
    Que labios maldecidos
                      B7
    porque quieren dañarme
    
    si yo sin ti me muero,
    
  • este punteo esta en La menor, la cancion original creo q esta en Mi menor.
    en este link puedes ver como tocar el punteo
    http://www.youtube.com/watch?v=FbJv-e-3GAs
    
    1)----------------------------------------------------I
    2)-5-5--5-----------------5--5-5--5-----------------5-I
    3)--------7-5-4---------4-----------7-5-4---------5---I
    4)--------------7-6---6-------------------6-7-6-7-----I
    5)------------------7---------------------------------I
    
    1)--5-5--5-----------------5--I
    2)---------8-6-5---------6----I
    3)---------------6-7-6-7------I
    
    
    1)-5-----------------------------------------------5-5--I
    2)---8-6-5------8-6-5-------6-5----------------5-5------I
    3)---------7-5--------7-5-4-----7-4--------5-5----------I
    4)----------------------------------6-7-7---------------I
  • 1)--------------------------------I
    2)-8-8---8-6-------0----0---8-----I
    3)-0-0-------8-7-5----0---7-------I
    4)--------------------------------I
    5)--------------------------------I
    
    **
    
    1)-------------------------------I
    2)---8-8---9-8-6--------------8--I
    3)---0-0---------8-7-5--0-5-8----I
    4)-------------------------------I
    5)-------------------------------I
    
    
    A partir  de los asteriscos  es una versión mía pero si quieren
    utilicen la propia que esta abajo.
    
    1)--------------------------------I
    2)--8-8---8-6-----0-----------8---I
    
  • +
    ¡Colabora con nosotros!
    Envíanos tu versión de esta canción

Letra de No me toquen ese vals
Me estoy acostumbrando a no mirarte,
me estoy acostumbrando a estar sin ti,
ya no te necesito, tu ya no me haces falta,
que bien se está solito, que bien se vive así.
Me estoy acostumbrando a no mirarte
me estoy acostumbrando a estar sin ti.
Que labios maldecidos
porque quieren dañarme
si yo sin ti me muero,
mi vida donde estás?
No me toquen ese vals porque me mata
ella me lo cantaba, como ella nadie mas.
Si paso por florida te recuerdo
si paso por la valle no es igual
que si estoy en corrientes
que si estoy en Palermo,
por todo Buenos Aires
conmigo siempre estás.
Que voy a acostumbrarme a no mirarte
que voy a acostumbrarme Dios, que vá...




[No me toquen ese vals chords][No me toquen ese vals cifra]
© LaCuerda.net · aviso legal · privacidad · es · en · pt · contacto