Acordes de Guitarra » J »Julio Jaramillo » Rondando tu esquina (Tab)

Rondando tu esquina
Julio Jaramillo

Letras, Acordes y Tabs para Guitarra, Bajo y Ukulele

  • Dm                A7
    Esta noche tengo ganas de buscarla
    Dm                    A7
    de borrar lo que ha pasado y perdonarla
    Dm                        C
    ya no me imprta el que diran
                             Bb
    ni de las cosas que hablaran total,
                      A7
    la gente siempre habla
    
    Dm                       A7
    Yo no pienso mas que en ella a toda hora
    Dm                   A7
    es terrible esta pasion devoradora
    Dm                  C
    y ella siempre sin saber
                         Bb
    sin siquiera sospechar
        A7          Dm   D
    
  •       e.---11-10-13-11--10-11-9----9-8-11-9--8-9-7----7-6--------
          b.-11-----------------------9------------------7---9-7-6---
          g.------------------------------------------------------7-8
          d.---------------------------------------------------------
          a.---------------------------------------------------------
          e.---------------------------------------------------------
    
    
          e.-5-6-6-7-----------|
          b.--------9-7-6------|
          g.-------------7-8---|
          d.-------------------|
          a.-------------------|
          e.-------------------|
    
    
    
    
          ahi esta el comienzo, pa la cancion hagan los acordes del otro muchacho
          pero suena mejor con sostenidos
    
  • e||-----10-9-12-10-9-10-8---8-7-10-8--7-8-6--|
    B||--10-------------------8------------------|
    G||------------------------------------------|
    D||------------------------------------------|
    A||------------------------------------------|
    E||------------------------------------------|
    
    
    e||-----6-4-5---------4-5-4-5-6--------------|
    B||---6-------8-5---------------8-5----------|
    G||---------------6-7---------------6-7------|
    D||------------------------------------------|
    A||------------------------------------------|
    E||------------------------------------------|
    
    
    Melodía Requinto Intro II (2da parte)
    e||------------------------------------------|
    B||----6-5-8-6-5-6-5---5-3-6-5--3-5-3--------|
    G||--7---------------5-----------------------|
    
  • +
    ¡Colabora con nosotros!
    Envíanos tu versión de esta canción

Letra de Rondando tu esquina
Esta noche tengo ganas de buscarla
de borrar lo que ha pasado y perdonarla
ya no me imprta el que diran
ni de las cosas que hablaran total,
la gente siempre habla
Yo no pienso mas que en ella a toda hora
es terrible esta pasion devoradora
y ella siempre sin saber
sin siquiera sospechar
mi deseo de volver
Que me has dado vida mia
que ando triste noche y dia
rondando siempre tu esquina
mirando siempre tu casa
y esta pasion que lastima
y este dolor que no pasa
hasta cuando ire sifriendo
el tormento de tu amor
Este pobre corazon que no la olvida
me la nombra con los labios de su herida
y ahondando mas su sinsabor
la mariposa del dolor
cruza en la noche de mi vida
Companero soy en noches de verbena
sin embargo yo no puedo con mi pena
y al saber que ella no esta
me pregunto sin cesar..
Que me has dado... (SE REPITEN LAS ESTROFAS)




[Rondando tu esquina chords][Rondando tu esquina cifra]
© LaCuerda.net · aviso legal · privacidad · es · en · pt · contacto