Acordes de Guitarra » J »Julio Jaramillo » Fatalidad (Tab)

Fatalidad
Julio Jaramillo

Letras, Acordes y Tabs para Guitarra, Bajo y Ukulele

  •       Am     E             Am
    A1) Nocturno de celaje dslumbrante
                   E                 Am
       tu encanto rememoro a cada instante
         C       G                   C
       romance del momento en que vivieras
             Dm                    Am
       con el alma iluminada, descubriendo en tu mirada
            E                     Am (A7)
       un amor que nadie tuvo para mi
                Dm                    Am
       aunque aciago el destino, dividio nuestro camino
              E                     Am
       y angustiado para siempre te perdi.
              E                        Am
    B1) Fatalidad signo cruel, en su rodar se llevo
                  E                   Am
       el mas valioso joyel que tu querer me brindo
             F                     Am
       el calor permanente de un cariño,
    
  •   LAm      MI7              LAm
    1.Nocturno de celaje deslumbrante
    
                 MI7                LAm
    2.tu encanto rememoro a cada instante
    
        DO    SOL7                   DO
    3.romance de un momento en que vivieras
    
             REm
    4.con el alma iluminada,
    
            LAm
    5.descubriendo en tu mirada
    
          MI7                     LAm   LA7
    6.un amor que nadie tuvo para mi
    
              REm          FAm dis.
    7.aunque aciago el destino,
    
  •   Em      B7            Em
    Nocturno de celaje deslumbrante
         Em    B7                Em
    Tu encanto rememoro a cada instante
     G        D7                    G
    Romance de un momento en que viviera
            Am                      Em
    Con el alma iluminada, Descubriendo en tu mirada
        B7                      Em
    Un amor que nadie tuvo para mí
    
    
            Am                     Em
    Aunque aciago el destino, dividió nuestro camino
          B7                       Em
    Y angustiado, para siempre te perdí
       B7                                 Em
    Fatalidad signo cruel que en mi rodar se llevó
             B7                        Em
    El más valioso joyel que tu querer me brindó
    
  •                 MI                              LAm
    e12----12-13-12-16-12--------12--16-12-------12--17-12--------12-17
    b---16------------------15----15------------15---15-----------13----13-------
    g--------------------------16-----------------16-----------------14----------
    D----------------------------------------------------------------------------
    A----------------------------------------------------------------------------
    E----------------------------------------------------------------------------
    
                    MI                              LAm
    e12----12-13-12-16-12--------12--16-12-------12--17-12--------12-17
    b---16------------------15----15------------15---15-----------13----13-------
    g--------------------------16-----------------16-----------------14----------
    D----------------------------------------------------------------------------
    A----------------------------------------------------------------------------
    E----------------------------------------------------------------------------
           LA7                     REm
    e-18-18-20-18---17-17-18-17---15-15-17-15--------------
    b-20-20-20-20---18-18-18-18---17-17-17-17---18-17-18---
    g------------------------------------------------------
    D------------------------------------------------------
    
  • El punteo esta en Re menor (Dm)
    
    
    1----------------9-------------9-------------10---------------10--
    2--10-9-10-11-10---10-8---8-10---10-8---10-8----10----------10----
    3-----------------------9-------------9------------10----10-------
    4-----------------------------------------------------12----------
    
    1----------------9-------------9-------------10---------------10--
    2--10-9-10-11-10---10-8---8-10---10-8---10-8----10----------10----
    3-----------------------9-------------9------------10----10-------
    4-----------------------------------------------------12----------
    
    
    1-11-11-13-11---10-10-11-10---8--8--10--8--------------
    2-13-13-13-13---11-11-11-11---10-10-10--10---11-10-11--
    3------------------------------------------------------
    4------------------------------------------------------
    
    1-10----------10--13-12-12-10-10---------------------------------------10--
    2----11----11--------------------13-13-11-10---------------------10-10-----
    3-------12-----------------------------------12-10
  • E.-----------------------------------------------------------------------
    A.-----------------------------------------------------------------------
    D.------------------------------------------------------------14---------
    G.------------------------11----------------11-------------12----12------
    B.12-11-12-13-12----12-10----10-12----12-10----10-12----12----------12---
    e.---------------11----------------11----------------12----------------12
    
    E.-----------------------------------------------------------------------
    A.-----------------------------------------------------------------------
    D.------------------------------------------------------------14---------
    G.------------------------11----------------11-------------12----12------
    B.12-11-12-13-12----12-10----10-12----12-10----10-12----12----------12---
    e.---------------11----------------11----------------12----------------12
    
    
    E.-----------------------------------------------------------------------
    A.-----------------
  • +
    ¡Colabora con nosotros!
    Envíanos tu versión de esta canción

Letra de Fatalidad
Nocturno de celaje deslumbrante
Tu encanto rememoro a cada instante
Romance de un momento en que viviera
Con el alma iluminada, Descubriendo en tu mirada
Un amor que nadie tuvo para mí
Aunque aciago el destino, dividió nuestro camino
Y angustiado, para siempre te perdí
Fatalidad signo cruel que en mi rodar se llevó
El más valioso joyel que tu querer me brindó
El calor permanente de un cariño
Que ávido como un niño de ti tanto esperó
¿Por qué te fuiste, mujer? como un sueño fugaz
Dejando en todo mi ser, una ansiedad pertinaz
Ahora espero en las noches tu regreso
Al sitio donde un beso fue chispa de mi fe
Estrella fugitiva de mi anhelo
Te llevas por desconocido cielo
Detente, no me robes la alegría
Sin tu influjo luminoso mi existencia en un destrozo
Oh, gitana, son tus ojos mi guion
No te apartes del camino bella luz que me iluminas
Oh, gitana, mi nocturno de pasión
Fatalidad signo cruel que en mi rodar se llevó
El más valioso joyel que tu querer me brindó
El calor permanente de un cariño
Que ávido como un niño de ti tanto esperó
¿Por qué te fuiste, mujer? como un sueño fugaz
Dejando en todo mi ser, una ansiedad pertinaz
Ahora espero en las noches tu regreso
Al sitio donde un beso fue chispa de mi fe




[Fatalidad chords][Fatalidad cifra]
© LaCuerda.net · aviso legal · privacidad · es · en · pt · contacto