Acordes de Guitarra » J »Julio Jaramillo » Fatalidad (Tab)
  • Letra y Acordes
           MI      SI7           MI
    A) Nocturno de celaje dslumbrante
                   SI7                 MI
       tu encanto rememoro a cada instante
         SOL          RE7            SOL
       romance del momento en que vivieras
             LA                    MI
       con el alma iluminada, descubriendo en tu mirada
           SI7                    MI
       un amor que nadie tuvo para mi
                LA                    MI     
       a unque aciago el destino, dividio nuestro camino
              SI7                     MI
       y angustiado para siempre te perdi.
            SI7                         MI  
    B) Fatalidad signo cruel, en su rodar se llevo
                 SI7                   MI
       el mas valioso joyel que tu querer me brindo
             DO       RE7            SOL
       el calor permanente de un cariño,
    
  • Letra y Acordes
          Am     E             Am
    A1) Nocturno de celaje dslumbrante
                   E                 Am
       tu encanto rememoro a cada instante
         C       G                   C
       romance del momento en que vivieras
             Dm                    Am
       con el alma iluminada, descubriendo en tu mirada
            E                     Am (A7)
       un amor que nadie tuvo para mi
                Dm                    Am
       aunque aciago el destino, dividio nuestro camino
              E                     Am
       y angustiado para siempre te perdi.
              E                        Am
    B1) Fatalidad signo cruel, en su rodar se llevo
                  E                   Am
       el mas valioso joyel que tu querer me brindo
             F                     Am
       el calor permanente de un cariño,
    
  • Letra y Acordes
      LAm      MI7              LAm
    1.Nocturno de celaje deslumbrante
    
                 MI7                LAm
    2.tu encanto rememoro a cada instante
    
        DO    SOL7                   DO
    3.romance de un momento en que vivieras
    
             REm
    4.con el alma iluminada,
    
            LAm
    5.descubriendo en tu mirada
    
          MI7                     LAm   LA7
    6.un amor que nadie tuvo para mi
    
              REm          FAm dis.
    7.aunque aciago el destino,
    
  • Tablatura
    E.-----------------------------------------------------------------------
    A.-----------------------------------------------------------------------
    D.------------------------------------------------------------14---------
    G.------------------------11----------------11-------------12----12------
    B.12-11-12-13-12----12-10----10-12----12-10----10-12----12----------12---
    e.---------------11----------------11----------------12----------------12
    
    E.-----------------------------------------------------------------------
    A.-----------------------------------------------------------------------
    D.------------------------------------------------------------14---------
    G.------------------------11----------------11-------------12----12------
    B.12-11-12-13-12----12-10----10-12----12-10----10-12----12----------12---
    e.---------------11----------------11----------------12----------------12
    
    
    E.-----------------------------------------------------------------------
    A.-----------------
  • Tablatura
    El punteo esta en Re menor (Dm)
    
    
    1----------------9-------------9-------------10---------------10--
    2--10-9-10-11-10---10-8---8-10---10-8---10-8----10----------10----
    3-----------------------9-------------9------------10----10-------
    4-----------------------------------------------------12----------
    
    1----------------9-------------9-------------10---------------10--
    2--10-9-10-11-10---10-8---8-10---10-8---10-8----10----------10----
    3-----------------------9-------------9------------10----10-------
    4-----------------------------------------------------12----------
    
    
    1-11-11-13-11---10-10-11-10---8--8--10--8--------------
    2-13-13-13-13---11-11-11-11---10-10-10--10---11-10-11--
    3------------------------------------------------------
    4------------------------------------------------------
    
    1-10----------10--13-12-12-10-10---------------------------------------10--
    2----11----11--------------------13-13-11-10---------------------10-10-----
    3-------12-----------------------------------12-10
  • Tablatura
                    MI                              LAm
    e12----12-13-12-16-12--------12--16-12-------12--17-12--------12-17
    b---16------------------15----15------------15---15-----------13----13-------
    g--------------------------16-----------------16-----------------14----------
    D----------------------------------------------------------------------------
    A----------------------------------------------------------------------------
    E----------------------------------------------------------------------------
    
                    MI                              LAm
    e12----12-13-12-16-12--------12--16-12-------12--17-12--------12-17
    b---16------------------15----15------------15---15-----------13----13-------
    g--------------------------16-----------------16-----------------14----------
    D----------------------------------------------------------------------------
    A----------------------------------------------------------------------------
    E----------------------------------------------------------------------------
           LA7                     REm
    e-18-18-20-18---17-17-18-17---15-15-17-15--------------
    b-20-20-20-20---18-18-18-18---17-17-17-17---18-17-18---
    g------------------------------------------------------
    D------------------------------------------------------
    
  • +
    ¡Colabora con nosotros!
    Envíanos tu versión de esta canción

Letra de Fatalidad
A) Nocturno de celaje dslumbrante
tu encanto rememoro a cada instante
romance del momento en que vivieras
con el alma iluminada, descubriendo en tu mirada
un amor que nadie tuvo para mi
a unque aciago el destino, dividio nuestro camino
y angustiado para siempre te perdi.
B) Fatalidad signo cruel, en su rodar se llevo
el mas valioso joyel que tu querer me brindo
el calor permanente de un cariño,
que avido como un niño de ti tanto espere
B) Porque te fuiste mujer, como un sueño fugas
dejando en todo mi ser una ansiedad pertinaz
ahora espero en las noches tu regreso
al sitio donde un beso fue chispa de mi fe
Punteo
A)Estrella fugitiva de mi anhelo
me lleva por desconocido cielo
detente no me robes la alegria
sin tu influjo iluminoso, mi existencia es un destrozo
oh gitana son tus ojos mi guion
no te apartes del camino, bella luz que me ilumina
oh gitana mi nocturno de pasion
Se Repite: B una vez
Esta fue la primera cancion que entone en mi guitarra
Espero que la disfruten



© LaCuerda.net · aviso legal · privacidad · contacto