Acordes de Guitarra » J »Juan Luis Guerra » Amapola (Tab)

Amapola
Juan Luis Guerra

Letras, Acordes y Tabs para Guitarra, Bajo y Ukulele

  • A                   Bm
    Abre las hojas del viento, mi vida
                        A9
    Ponle una montura al rio,
                        Bm7
    Cabalga y si te da frio te arropas
                        A9
    Con la piel de las estrellas
                         Bm7
    De almohada la luna llena, mi vida
                      A9
    Y de sueño el amor mío
    
    
    
    
    A              Bm7
    Y una amapola, me lo dijo ayer
                     A9
    Que te voy a ver, que te voy a ver
    
  • A        : x02220
    Bm(add E): 024430
    D(add E) : xx0230
    
    Tuning : E A D G B E       Time Signature: 4/4
    
    Intro (x2)
    
     A                 Bm (add E)        D (add E)        A
    |--------0-----0--|-------0-----0---|--------0----0--|--------0-----0--|
    |----2-----2------|---3-----3-------|----3-----3-----|----2-----2------|
    |--2---2-----2----|-4---4-----4-----|--2---2-----2---|--2---2-----2----|
    |-----------------|-----------------|0---------------|-----------------|
    |0----------------|2----------------|----------------|0----------------|
    |-----------------|-----------------|----------------|-----------------|
    
    Verso:
    
        Abre las hojas del viento mi vida ponle una montura al rio
    |9----9---9--9-9--|7---7---7--7-7----|5---5---5--5-5----------|4---4---4--4-4---|
    
  • A         : 000220
    Bm        : 24430
    *Bm2       : 023430
    *este no se como se llama pero ha de ser pariente de si menor
    
    
    Intro (x2)
    
     A                    Bm                Bm2                  A
    |----------0-------|----------0----|-------0-----|----------0-------|
    |0---2--------2----|3----------3---|3--------3---|0---2--------2----|
    |--------2-------2-|----4--------4-|---4-------4-|--------2-------2-|
    |------------------|------4--------|-----3-------|------------------|
    |0-----------------|2--------------|2------------|0-----------------|
    |------------------|---------------|-------------|------------------|
    
    Verso:
    
    Abre las hojas del ..viento mi vida....ponle una montura al rio
    |9----9-----9---9-9|7-----7----7---7-7|5----5---5----5-5|4----4----4----4-4|
    
  •    A1  Bm    A2
    e--9---7---7---5----
    B--10--7---6---5----
    G--9---7---7---6----
    D------9---6--------
    A--0---9-------0----
    E------7------------
    
    POSICIONES DE LOS TONOS EN LA GUITARRRA QUE HACE ACOMPAÑAMIENTO:
    
       A1  Bm    A2 (Bm7)
    e--0---2-------0---2--
    B--2---3---3---0---3--
    G--2---4---2---2---2--
    D--2---4---3---2---4--
    A--0---2---2---0---2--
    E---------------------
    
    [INTRO:]
    
    
  • +
    ¡Colabora con nosotros!
    Envíanos tu versión de esta canción

Letra de Amapola
Abre las hojas del viento, mi vida
Ponle una montura al rio,
Cabalga y si te da frio te arropas
Con la piel de las estrellas
De almohada la luna llena, mi vida
Y de sueño el amor mío
Y una amapola, me lo dijo ayer
Que te voy a ver, que te voy a ver
Y un arcoíris me pinto la piel
Para amanecer contigo oh oh
Y una amapola, me lo dijo ayer
Que te voy a ver, que te voy a ver
Y un arcoíris me pinto la piel
Para amanecer contigo
Cierra la noche y el día, mi vida
Para que todo sea nuestro
Y una gran fuga de besos
se pose sobre tu boca
y que´l trinar de las rosas, mi vida
te digan cuanto te quiero
Y una amapola, me lo dijo ayer
Que te voy a ver, que te voy a ver
Y un arcoíris me pinto la piel
Para amanecer contigo oh oh
Y una amapola, me lo dijo ayer
Que te voy a ver, que te voy a ver
Y un arcoíris me pinto la piel
Para amanecer contigo




[Amapola chords][Amapola cifra]
© LaCuerda.net · aviso legal · privacidad · es · en · pt · contacto