Acordes de Guitarra » J »Juan Luis Guerra » Bachata Rosa (Tab)

Bachata Rosa
Juan Luis Guerra

  • Letra y Acordes
    G   D   Em  Bm     G  Em   C D  G
    
    
    G         D         Em
    Te regalo una rosa,
                    Bm       C
    la encontré en el camino
                  G
    no se si esta desnuda
    A               D
    o tiene un solo vestido, no no lo se..
    
    G           D         Em
    Si la riega el verano
                      Bm     C
    O se embriaga de olvido
                  G
    Si alguna vez fue amada
    A               D
    O tiene amor escondido
    
  • Letra y Acordes
    Intro: G C D, G C D  
    
    G              D   Riff1 Em
    Te regalo una rosa,
                         Bm Riff2 C
    la encontré en el camino
                      G
    no se si esta desnuda
    A7                   D
    o tiene un solo vestido.
    
    Si la riega en verano
    O se embriaga de olvido
    Si alguna vez fue amada 
    O tiene amor escondido
    
    Coro:
          C          Bm     Em
    Ay, Ay Ay Ay mi amor
    C                   Bm    Em   
    
  • Letra y Acordes
    G   D   C  D  Am  Am/G D/F#
    G   D   C  D  Am  D/F#
    
    
    G             D    Em
    Te regalo una rosa,
                       Bm    C
    la encontré en el camino
                    G/B
    no se si esta desnuda
    A                D/F#
    o tiene un solo vestido, no no lo se..
    
    G           D        Em
    Si la riega el verano
                      Bm     C
    O se embriaga de olvido
                      G/B
    Si alguna vez fue amada
    Asus - A           D
    
  • Tablatura
    Esta canción es la melodía.  Como si fuera la letra de la
    canción pero tocada.
    
    Empieza así:
    
    
    E||------7--10--10--12--10--|--10------------------|-----------------------|
    B||---8---------------------|------------10--------|---------7--8----7-5---|
    G||-------------------------|----------------------|------9----------------|
    D||-------------------------|----------------------|-----------------------|
    A||-------------------------|----------------------|-----------------------|
    E||-------------------------|----------------------|-----------------------|
    
    
    
    --7-----------------|--------12--12----10--8--|--10----10-------------|
    -----------7--------|-------------------------|------------8----------|
    --------------------|-------------------------|-----------------------|
    --------------------|-------------------------|-----------------------|
    --------------------|-------------------------|-----------------------|
    --------------------|-------------------------|---------
  • Tab p/Bajo
    Hola amigos. Tengan todos ustedes un feliz año
    2013 repleto de salud, amor, prosperidad
    y muy buena vibra. Ahora con ustedes, una de
    las mejores canciones románticas de música latina
    de todos los tiempos a cargo del Maestro
    Juan Luis Guerra:
    
    Intro
    
    G -------|-------|-------|-----------|-----|
    D -------|-------|-------|-----------|-----|
    A ----5--|----5--|-------|---5----5--|---5-|
    E -3-----|-5-----|-5-3-2-|-5----3----|-5---|
    
    G -------|
    D -------|
    A -------|
    E -5-2-5-|
    
    Versos:
    
    "Te regalo una rosa. La encontré en el camino.
    No sé si está desnuda, o tiene un solo vestido.
    No, no lo sé"...
    
    
    G ---|---------|-------------4-|---4-5--|---5-4--|---4-2--|
    D ---|---------|------2---2----|-4------|-5------|-5------|
    A ---|--2-5----|---5----2------|--------|--------|--------|
    E -3-|------2--|-5-------------|--------|--------|--------|
    
    G ---2----|-2-----|
    D -2---4--|----4--|
    A --------|-------|
    E --------|-------|
    
    "Si la riega el verano. O se embriaga de olvido. Si alguna
    vez fue amada
  • +
    ¡Colabora con nosotros!
    Envíanos tu versión de esta canción
  • Tutorial
    HD
    como tocar BACHATA ROSA de juan luis guerra en guitarra
    8:17

Letra de Bachata Rosa
Te regalo una rosa,
la encontré en el camino
no se si esta desnuda
o tiene un solo vestido, no no lo se..
Si la riega el verano
O se embriaga de olvido
Si alguna vez fue amada
O tiene amor escondido
Ay, Ay Ay Ay amor
Eres la rosa que me da calor
Eres el sueño de mi soledad
Un letargo de azul
Un eclipse de mar Pero...
Ay, Ay Ay Ay amor
Yo soy satélite tu eres mi sol
Un universo de agua mineral
Un espacio de luz... que solo llenas tu
Ay, Ay Ay Ay INTRO
Te regalo mis manos
Mis parpados caídos
El beso mas profundo
el que se ahoga en un gemido Oh oh oh..
Te regalo un otoño
Un dia entre abril y junio
Un rayo de ilusiones
Un corazón al desnudo
Ay, Ay Ay Ay amor
Eres la rosa que me da calor
Eres el sueño de mi soledad
Un letargo de azul
Un eclipse de mar vida...
Ay, Ay Ay Ay amor
Yo soy satélite tu eres mi sol
Un universo de agua mineral
Un espacio de luz... que solo llenas tu
Ay, Ay Ay Ay -Intermedio-(silbando)
Ay, Ay Ay Ay amor
Eres la rosa que me da calor
Eres el sueño de mi soledad
Un letargo de azul
Un eclipse de mar pero...
Ay, Ay Ay Ay amor
Yo soy satélite tu eres mi sol
Un universo de agua mineral
Un espacio de luz... que solo llenas tu
Ay, Ay Ay Ay x2



© LaCuerda.net · aviso legal · privacidad · contacto