Acordes de Guitarra » J »Juan Fernando Velasco » Dicen (Tab)

Dicen
Juan Fernando Velasco

Letras, Acordes y Tabs para Guitarra, Bajo y Ukulele

  • LAm    -    MI7   (x2)
    1)
    LAm                                       SI7     
    Dicen que el tiempo es el mejor remedio para olvidar,
    REm                                       MI7
    dicen que no hay mal que dure cien años y no es verdad
    LAm                                     SI7
    dicen que del odio al amor solamente un paso hay,
    REm                                      MI7
    y aunque lo intento mil veces no puedo dejarte de amar
    (no puedo dejarte de amar)
    Intro (x1)
    2)
    LAm                                     SI7
    Dicen que la distancia es el olvido y a mi me da igual,
    REm                                          MI7
    porque por mas que me alejo en mi mente te escondes y estas
    (enloqueciendome)
    LAm                                  REm 
    Dicen y dicen frases sin sentido y estan tan mal,
    
  • E -5-7-8-7-8-7-5-4--4*5-4-------------------------|--5-7-8-7-8-10-12-10---7*8--5-4-5---
    B ---------------------------5*6--4-5-5--5*6--5-5-|------------------------------------
    G ------------------------------------------------|------------------------------------ 
    D ------------------------------------------------|------------------------------------ 
    A ------------------------------------------------|------------------------------------ 
    E ------------------------------------------------|------------------------------------ 
    
    Introducción:  Am - E - Am - E
    
       Am                                            E    
    Dicen que el tiempo es el mejor remedio para olvidar
       Dm                                          E7
    dicen que no hay mal que dure cien años y no es verdad
       Am                                         E 
    dicen que del odio al amor solamente un paso hay
       Dm                                               E7                         Am
    y aunque lo intente mil veces no puedo dejarte de amar  (no puedo dejarte de amar)
    
    Introducción: (segunda parte)
    
    
  • INTRO:
    
    e|-------------------6-8-9-8-6--------------|
    B|-5h6-6--7-6h7p6-5-6-----------7-7^6-6h7-7-|
    G|------------------------------------------|
    D|------------------------------------------|
    A|------------------------------------------|
    E|------------------------------------------|
    
    e|--------------------------6-8-9-8-9-10/12-12-10--|
    B|-5-6-6--6-6h7p6-5-6------------------------------|
    G|-------------------------------------------------|
    D|-------------------------------------------------|
    A|-------------------------------------------------|
    E|-------------------------------------------------|
    
    
    e|-7h8-7--5-4-5--------------------------------|
    B|---------------------------------------------|
    G|---------------------------------------------|
    D|---------------------------------------------|
    A|---------------------------------------------|
    E|---------------------------------------------|
    
    
    h=Hammer on
    p=Pull of
    /=Slide down
    ^=Bend up
    
    
    ESPERO QUE LA DISFRUTEN, ES MI PRIMER TAB.
    Esto va d
  • +
    ¡Colabora con nosotros!
    Envíanos tu versión de esta canción
  • Tutorial
    HD
    Como tocar DICEN de Juan F Velasco en Guitarra
    2:15

Letra de Dicen
1)
Dicen que el tiempo es el mejor remedio para olvidar,
dicen que no hay mal que dure cien años y no es verdad
dicen que del odio al amor solamente un paso hay,
y aunque lo intento mil veces no puedo dejarte de amar
(no puedo dejarte de amar)
2)
Dicen que la distancia es el olvido y a mi me da igual,
porque por mas que me alejo en mi mente te escondes y estas
(enloqueciendome)
Dicen y dicen frases sin sentido y estan tan mal,
porque no saben, porque no han sentido el dolor de amar
Cuando no se puede olvidar...
___ Y los dias, se hacen grises, como las noches
___ y aquel sueño, nunca llega. no se cuando volverás...
(Las notas del siguiente parrafo son iguales al N°2)
y aunque todo lo que dice la gente suena verdad,
no hay mas verdad que la soledad que siento cuando no estas
(te necesito)....
Porque sin ti nada tiene sentido, y a ti te da igual,
porque no sabes, tu nunca has sentido el dolor de amar.
Cuando no se puede olvidar...
dicen que la distancia es el olvido
y que por mas que me alejo en mi mente te escondes y estas...
y a lo que todo lo que dice la gente, lo que dice la gente
porque no sabes, tu nunca has sentido el dolor de amar.
Oyeme, dime cuando, cuando, cuando..
y los dias se hacen grises... cuando volveras..
Agradezco la ayuda de una persona que me ha motivado para seguir adelante
en mi vida, su nombre es Angye y me alegra conocerla,
Porque ella me ha dado el valor suficiente para seguir
con vida......la quiero muchisimo...




[Dicen chords][Dicen cifra]
© LaCuerda.net · aviso legal · privacidad · es · en · pt · contacto
DINAMICO