Acordes de Guitarra » J »Jovenes Pordioseros » Gracias por venir (Tab)

Gracias por venir
Jovenes Pordioseros

Letras, Acordes y Tabs para Guitarra, Bajo y Ukulele

  • Intro: (F-Dm-A#-C-F) x2
    
    A#              C                F
    No creo que entiendas este sentimiento
    A#        C          F
    Que no me deja respirar
    A#            C     Dm       C         A#
    Todo lo que hicimos yo no me voy a olvidar
    C        A#            C
    Por que puede estar mejor
    
    F             Dm        A#        C   F
    Gracias por venir, yo estuve esperándote
    F             Dm        A#        C   F
    Gracias por venir, yo estuve esperándote
    
    
    No te preocupes si te hicieron mal
    La venganza es un placer
    Todos los días yo te quiero ver
    
  • intro: F C A# C Fx2
             F          C     A#  C     F
    e|-------------------------------------|
    B|-------6^-6/8-6-5--------------------|
    G|-----5------------5------------------|
    D|-5-7----------------7-7-8-8-7-5h7-3--|
    A|-------------------------------------|
    E|-------------------------------------|
               F          C     A#  C     F
    e|---------------------------------------|
    B|---------6^-6/8-6-5--------------------|
    G|-------5------------5------------------|
    D|-4h5-7----------------7-7-8-8-7-5h7-3--|
    A|---------------------------------------|
    E|---------------------------------------|
    
    A#              C               F
    NO CREO QUE ENTIENDAS ESTE SENTIMIENTO,
    A#         C         F
    QUE NO ME DEJA RESPIRAR.
    
  • +
    ¡Colabora con nosotros!
    Envíanos tu versión de esta canción

Letra de Gracias por venir
No creo que entiendas este sentimiento
Que no me deja respirar
Todo lo que hicimos yo no me voy a olvidar
Por que puede estar mejor
Gracias por venir, yo estuve esperándote
Gracias por venir, yo estuve esperándote
No te preocupes si te hicieron mal
La venganza es un placer
Todos los días yo te quiero ver
Por que puede estar mejor
Gracias por venir, yo estuve esperándote
Gracias por venir, yo estuve esperándote
Gracias por venir yo estuve esperando
Sigo esperando
Estoy esperándote




[Gracias por venir chords][Gracias por venir cifra]
© LaCuerda.net · aviso legal · privacidad · es · en · pt · contacto
DINAMICO