Acordes de Guitarra » J »Joan Sebastian » Una noche más (Tab)

Una noche más
Joan Sebastian

Letras, Acordes y Tabs para Guitarra, Bajo y Ukulele

  • e-------------|--------------|
    B-------------|--------------|
    G-2-2-2-1-----|-4-4-4-1------|
    D---------4-2-|---------2-4--|
    A-------------|--------------|
    
    e-------------|--------------|------------------|
    B-------------|--------------|------------------|
    G-2-2-2---1---|-4-4-4-1------|------------------|
    D-------4---2-|---------2-4--|-2-2h4----2-2h4---|
    A-------------|--------------|------------------|
    E-------------|--------------|------------------|
    
    
    
    Intro: E  F#m....(2 Veces)
    
    F#m                               Bm
    Por si acaso tu orgullo se acaba y tu altivez,
                   E7               A  Bm
    
  • B-------------------|-------------------|
    G-------------------|-------------------|
    D-2-2-2-1-----------|-4-4-4-1-----------|
    A---------4-2-0-0-2-|---------2-4-0-2-4-|
    E-------------------|-------------------|
    
    B------------------|-------------------|------------------|
    G------------------|-------------------|------------------|
    D-2-2-2-1----------|-4-4-4-1-----------|------------------|
    A---------4-2-0-0-2|---------2-4-0-4---|-2-0-2-4-4-4-4----|
    E------------------|-------------------|------------------|
    
    Intro: D  Em....(2 Veces)
    
    Em                                 Am
    Por si acaso tu orgullo se acaba y tu altivez,
                   D7                 G
    te deja ver la vida, un día como es
                 Em                Am
    por si acaso mañana, me dieras la razón
    
  • +
    ¡Colabora con nosotros!
    Envíanos tu versión de esta canción

Letra de Una noche más
Por si acaso tu orgullo se acaba y tu altivez,
te deja ver la vida, un día como es
por si acaso mañana, me dieras la razón
por eso es que te dejo, mi nueva dirección.
Por si necesitaras un día, de un amigo
yo quiero recordarte que lo tendrás conmigo
y por si acaso nunca volviera yo a encontrarte
antes de despedirme yo quiero suplicarte.
Regálame otra noche, hasta que llegue el día
y después yo me marcho si
me marcho vida mía.
Y POR SI ACASO NUNCA TE VUELVO A ENCONTRAR
REGÁLAME UNA NOCHE UNA NOCHE MAS.
Y POR SI ACASO NO NUNCA TE VUELVO A BESAR
REGÁLAME UNA NOCHE UNA NOCHE MAS,
REGÁLAME UNA NOCHE MAS
UNA NOCHE MAS, UNA NOCHE MAS
UNA NOCHE MAS.
Por si acaso mañana, me llegas a extrañar
Y la melancolía, llegara a tu lugar
no lo tomes a ofensa miarlo, pudiera el caso dar
aquí esta mi teléfono, me llamas por cobrar.
Y POR SI ACASO NUNCA TE VUELVO A ENCONTRAR
REGÁLAME UNA NOCHE UNA NOCHE MAS.
Y POR SI ACASO NO NUNCA TE VUELVO A BESAR
REGÁLAME UNA NOCHE UNA NOCHE MAS,
REGÁLAME UNA NOCHE MAS
UNA NOCHE MAS, UNA NOCHE MAS
UNA NOCHE MAS.
Y POR SI ACASO NUNCA TE VUELVO A ENCONTRAR
REGÁLAME UNA NOCHE UNA NOCHE MAS.
Y POR SI ACASO NO NUNCA TE VUELVO A BESAR
REGÁLAME UNA NOCHE UNA NOCHE MAS,
REGÁLAME UNA NOCHE MAS
UNA NOCHE MAS, UNA NOCHE MAS
UNA NOCHE MAS.
FIN
Saludos a todo el CETis 99
Jackas
joaquin_zh@hotmail.com




[Una noche más chords][Una noche más cifra]
© LaCuerda.net · aviso legal · privacidad · es · en · pt · contacto