Acordes de Guitarra » J »Joan Sebastian » Un vaquero en la cuidad (Tab)

Un vaquero en la cuidad
Joan Sebastian

Letras, Acordes y Tabs para Guitarra, Bajo y Ukulele

  •       A#
    Le pusieron un saquito a cuadros
                  D#
    de un estilo real
                 A#
    príncipe de Gales
                      D#
    y para colmo de males
                   A#
    una corbata Versace.
    
         A#
    Le dijieron como manejarse
            D#
    en sociedad
                          A#
    y le escondieron las botas
                        D#
    ay, yo no sé si lo notas
                       A#
    
  • e. ------------------------------------------------------------------|
    B. -----------------------------2p1---4------------------------------|
    G. ---------3-3-3--------3-3-3--3---3-3h5-3---------3-3--------3-3-3-|
    D. -----3-5----------3-5--------------------5-3-3h5--------3h5-------|
    A. -3h5----------3h5-----------------------------------3h5-----------|
    E. ------------------------------------------------------------------|
    
    *Acordeón
                    D#                                         A#
    e. ----------------------------------------------------13-10p8-10~-|
    B. -13-13-13-13-13-11----13-13-13-13-11----13-13-13-11-------------|
    G. ----------------------------------------------------------------|
    D. -------------------13----------------13-------------------------|
    A. ----------------------------------------------------------------|
    E. ----------------------------------------------------------------|
    
    *Gtra. Eléctrica
    
    e. -------------------------------|
    B. -(14)r13p11-13b14r13p11----11~-|
    
  • +
    ¡Colabora con nosotros!
    Envíanos tu versión de esta canción

Letra de Un vaquero en la cuidad
Le pusieron un saquito a cuadros
de un estilo real
príncipe de Gales
y para colmo de males
una corbata Versace.
Le dijieron como manejarse
en sociedad
y le escondieron las botas
ay, yo no sé si lo notas
pero tropieza al andar.
¿Qué es lo que hace ahí?
¿Qué es lo que hace? sí
Un vaquero en la ciudad.
¿Qué es lo que hace ahí?
¿Qué es lo que hace? sí
Un vaquero en la ciudad.
(Verso)
Le dijieron que el amor es libre
libre para volar
y le cortaron las alas
ay, le cortaron las alas
que contrariedad.
Le dijieron como manejarse
en sociedad
y le escondieron las botas
ay, yo no sé si lo notas
pero tropieza al andar.
¿Qué es lo que hace ahí?
¿Qué es lo que hace? sí
Un vaquero en la ciudad.
¿Qué es lo que hace ahí?
¿Qué es lo que hace? sí
Un vaquero en la ciudad.
¿Qué es lo que hace ahí?
¿Qué es lo que hace? sí
Un vaquero en la ciudad.




[Un vaquero en la cuidad chords][Un vaquero en la cuidad cifra]
© LaCuerda.net · aviso legal · privacidad · es · en · pt · contacto
DINAMICO