Acordes de Guitarra » J »Joan Sebastian » Desamor (Tab)

Desamor
Joan Sebastian

Letras, Acordes y Tabs para Guitarra, Bajo y Ukulele

  •         LA
    se que esta 
                       MI7
    por llegar la despedida
         RE
    encontre
       MI7          LA 
    desamor en tu mirar.
    
          LA      LA7
    si me vas a dejar
               RE 
    no me lo digas
            MI7 
    no me gusta
                   LA 
    que me vean llorar
     
          MI7
    si amanece
    
  •                     D
    e:---3p2---0-0h2-------3p2---0---
    B:-3-----3-------3----3----3---3-
    
    intro trompeta y clarin:
    
    e:-----0------------------------0------------------
    B:-1-3---3-1-0-3-1-0---1-0--1-3---3-1-0-3-1-0----0-
    G:-------------------2-------------------------2---
    
    e:-----0-0-----------0-0----------0-------------
    B:-1-3-----3-1---1-3-----3-1--1-3---3-1-0---1-0-
    G:----------------------------------------2-----
          A
    se que esta
                       E7
    por llegar la despedida
         D
    encontre
       E7             A
    
  • +
    ¡Colabora con nosotros!
    Envíanos tu versión de esta canción

Letra de Desamor
se que esta
por llegar la despedida
encontre
desamor en tu mirar.
si me vas a dejar
no me lo digas
no me gusta
que me vean llorar

si amanece
y no tengo tus caricias
pensare que fuiste un sueño
y desperte.
y al final
termino en pesadilla
nuestro sueño
por el desamor

si amanece
y no tengo tus caricias
pensare que fuiste un sueño
y desperte

y al final
termino en pesadilla
nuestro sueño
por el desamor.




[Desamor chords][Desamor cifra]
© LaCuerda.net · aviso legal · privacidad · es · en · pt · contacto
DINAMICO