Tablatura de Jesús Adrián Romero: Escribiré mil canciones
Jesus Adrian Romero
Un Brote de Adoracion 2 [05]
e ----16-17------19-19------------------|
B ---------------------19---------------|
G ------------------------18------------|
D -----------------------------17-------|
A --------------------------------------|
E --------------------------------------|



e -----12--14---16-16---------------|----
B ---------------------17-----------|----
G ------------------------16--18----|----
D ----------------------------------|----
A ----------------------------------|----
E ----------------------------------|----


e ----------------------------------|----
B -------16-17-----17-16------------|----
G ----18-------16--------16-18------|----
D ----------------------------------|----
A ----------------------------------|----
E ----------------------------------|----



e ---------------17--19--16---------|----
B ----------------------------------|----
G ----------------------------------|----
D ----------------------------------|----
A ----------------------------------|----
E ----------------------------------|----



Dios le Bendiga desde Ecuador, espero les guste

Autor: Fabián León
Este fichero es trabajo propio de su transcriptor y representa su interpretación personal de la canción. El material contenido en esta página es
para exclusivo uso privado, por lo que se prohibe su reproducción o retransmisión, así como su uso para fines comerciales.
© LaCuerda.net · aviso legal · privacidad · contacto