Acordes de Guitarra » J »Jesús Adrián Romero » Escribiré mil canciones (Tab)

Escribiré mil canciones
Jesús Adrián Romero

Letras, Acordes y Tabs para Guitarra, Bajo y Ukulele

  • Intro: D - Bm - F#m - G - D - A.
    
    
    D            A              Bm
    Como una medicina, como el sol
    
                     F#m               G           A
    En un invierno crudo me llego tu amor y me transformó
    
    D               A            Bm                       F#m
    Mis ojos no miraban hasta conocer al Rey que dio su vida
    
                G                 A
    Por verme nacer de nuevo otra vez.
    
    F#m          G        A
    Yo quiero vivir para tu placer.
    
        D               G                    A
     //Escribiré mil canciones que hablen de ti
    
  • Intro: E - C#m - G#m - A - E - B.
    
    
    E            B             C#m
    Como una medicina, como el sol
    
                     G#m               A           B
    En un invierno crudo me llego tu amor y me transformó
    
    E               B           C#m                       G#m
    Mis ojos no miraban hasta conocer al Rey que dio su vida
    
                A                 B
    Por verme nacer de nuevo otra vez.
    
    G#m          A        B
    Yo quiero vivir para tu placer.
    
        E               A                    B
     //Escribiré mil canciones que hablen de ti
    
  • e ----16-17------19-19------------------|
    B ---------------------19---------------|
    G ------------------------18------------|
    D -----------------------------17-------|
    A --------------------------------------|
    E --------------------------------------|
    
    
    
    e -----12--14---16-16---------------|----
    B ---------------------17-----------|----
    G ------------------------16--18----|----
    D ----------------------------------|----
    A ----------------------------------|----
    E ----------------------------------|----
    
    
    e ----------------------------------|----
    B -------16-17-----17-16------------|----
    G ----18-------16--------16-18------|----
    D ----------------------------------|----
    A ----------------------------------|----
    E ----------------------------------|----
    
    
    
    e ---------------17--19--16---------|----
    B ----------------------------------|----
    G ----------------------------------|----
    D ----------------------------------|----
    A ----------------------------------|----
    E ------------------------
  • +
    ¡Colabora con nosotros!
    Envíanos tu versión de esta canción

Letra de Escribiré mil canciones
Como una medicina, como el sol
En un invierno crudo me llego tu amor y me transformó
Mis ojos no miraban hasta conocer al Rey que dio su vida
Por verme nacer de nuevo otra vez.
Yo quiero vivir para tu placer.
//Escribiré mil canciones que hablen de ti
Y declarare mi amor por ti.
Con la poesia de mi corazón
Con todas las fuerzas de mi alma
Escribiré mil canciones que hablen de ti
y declarare me amor por ti.
Con la poesia de mi corazón
Con todas las fuerzas de alma ohohoh y de mi voz//
Conocer de tu amor fue para mí
El cuadro más hermoso que llego a existir y no merecí,
quisiera darte mas de lo que puedo dar y no consigo hallar
ninguna cosa mas que te pueda dar
mi voz mi canción no se apagaran




[Escribiré mil canciones chords][Escribiré mil canciones cifra]
© LaCuerda.net · aviso legal · privacidad · es · en · pt · contacto