Acordes de Guitarra » J »Jesús Adrián Romero » Es por tu gracia (Tab)

Es por tu gracia
Jesús Adrián Romero

  • Letra y Acordes
    Intro: E-A-C#m-B-A(add2)
           E-E
    
    
    E                   A(add2)         E
     Cuando nadie me ve en la intimidad
    
                         A(add2)           C#m
    Donde no puedo hablar más que la verdad
    
                        A(add2)G#m7
    Donde no hay apariencias
    
    F#m7           F#m7/E               Bsus4       B7
    Donde descubier______to que____da mi____ corazón
    
    
        E        Bsus4      B       F#m7                         C#m7
    Allí  soy sin_____cero,    allí_____ me apariencia de piedad
    
    
  • Letra y Acordes
    Intro: E-A-C#m-B
           E-E
    
    
    E                A               E
     Cuando nadie me ve en la intimidad
    
                       A                C#m
    Donde no puedo hablar más que la verdad
    
                      A      F#m7
    Donde no hay apariencias
    
                            B
    Donde descubierto queda me corazón
    
    
        E           B      F#m7                  C#m
    Hallé soy sincero, hallé me apariencia de piedad
    
    
  • Tablatura
    e|----7-7--5-5-4---------|---5-5-4-5p4-----------|-----------------|
    B|---------------8/7--5--|---------------7-5-7/9-|---5-5--4-4-5h4--|
    G|----8-8--6-6-4---------|---6-6-4-6p4-----------|---------------4-|
    D|---------------8/7--6--|---------------7-6-7/9-|---6-6--4-4------|
    A|-----------------------|-0---------------------|-4---------------|
    E|-0---------------------|-----------------------|-----------------|
    
    
    e|-----------|----------0------0-------|
    B|--2------2-|----0----------0----4-2--|
    G|-------4---|-------2------------4-2--|
    D|-----2-----|--2----4-----------------|
    A|-----------|-------------------------|
    E|-----------|-0-----------0-----------|
    
    FINAL:
    e|----7v-7v--5v-5v-4h5p4------|---5v-5v--4-4h5p4---------|---------|
    B|-----------------------7--5-|--------------------7-5-4-|----5----|
    G|----8v-8v--6v-6v-4h5p4------|---6v-6v--4-4h5p4---------|---4-----|
    D|-----------------------7--6-|--------------------7-6-4-|--6------|
    
  • Tablatura
       E                        A                     C#m   C#m/B
    
    e|----7-7--5-5-----------|---5-5--4-4-----------|-----------------|
    B|-------------9-9/7--5--|-------------7-5-7/9--|---5-5--4-4-5h4--|
    G|----8-8--6-6-----------|---6-6--4-4-----------|---------------4-|
    D|-------------9-9/7--6--|-------------7-6-7/9--|---6-6--4-4------|
    A|-----------------------|-0--------------------|-4---------------|
    E|-0---------------------|----------------------|--------7--------|
    
    
        A  Aadd9      E
    
    e|-----------|----------0------0-------|----------|
    B|--2------2-|----0----------0----4-2--|-------0--|
    G|--2----4---|-------2------------4-2--|-----2----|
    D|-----2-----|--2----4-----------------|---2------|
    A|--0--------|-------------------------|----------|
    E|-----------|-0-----0-----0-----------|-0--------|
    
    proximamente les estaré enviando el TAB del resto de la canción...
    
  • Tablatura
                                        C#m7
    e---7-7-5-5-4-2-0---5-5-4-4-2-0-2/4---------------------------------
    B-------------------------------------5-5-4-4-5h4-------------------
    G---8-8-6-6-4-2-1---6-6-4-4-2-1-2/4---------------4-----------------
    D-------------------------------------6-6-4-4-----------------------
    A-----------------0-----------------4-------------------------------
    E-0-----------------------------------------------------------------
    
      A  A#m5    E
    e--------------------0------0---------------------------------------
    B-2------2-------0--------0---2-4-----------------------------------
    G-2----4---------1-2----------2-4-----------------------------------
    D----2---------2---4------------------------------------------------
    A-0-----------------------------------------------------------------
    E------------0-----0----0-------------------------------------------
    
    ESTROFA
    
      E     A#m5  E     A#m5   C#m7      A         G#m7   F#m7
    e--------------------------------------------------------0----------
    
  • Tablatura
       E                        A                     C#m   C#m/B
    
    e|----7-7--5-5-----------|---5-5--4-4-----------|-----------------|
    B|-------------9-9/7--5--|-------------7-5-7/9--|---5-5--4-4-5h4--|
    G|----8-8--6-6-----------|---6-6--4-4-----------|---------------4-|
    D|-------------9-9/7--6--|-------------7-6-7/9--|---6-6--4-4------|
    A|-----------------------|-0--------------------|-4---------------|
    E|-0---------------------|----------------------|--------7--------|
    
    
        A  Aadd9      E
    
    e|-----------|----------0------0-------|----------|
    B|--2------2-|----0----------0----4-2--|-------0--|
    G|--2----4---|-------2------------4-2--|-----2----|
    D|-----2-----|--2----4-----------------|---2------|
    A|--0--------|-------------------------|----------|
    E|-----------|-0-----0-----0-----------|-0--------|
    
    
    
  • +
    ¡Colabora con nosotros!
    Envíanos tu versión de esta canción
  • Tutorial
    "Es por tu gracia" Jesus Adrian R. - Leccion para guitarra
    3:50

Letra de Es por tu gracia
Cuando nadie me ve en la intimidad
Donde no puedo hablar más que la verdad
Donde no hay apariencias
Donde descubierto queda me corazón
Hallé soy sincero, hallé me apariencia de piedad
Se va, hallé es tu gracia lo que cuenta tu
Perdón lo que sustenta para esta de pie
Y no podría dar la cara si no fuera porque
Soy, revestido de la gracia y la justicia
Del señor, si me verán tal cual soy
Senté rayan que es Jesús, lo que visto reflejar
En mi tan solo fue su luz
Es por tu gracia y tu perdón que podemos
Ser llamados instrumentos de tu amor
Es por tu gracia y tu perdón
Y justicia queda lejos de tu perfección
Final:



© LaCuerda.net · aviso legal · privacidad · contacto