Acordes de Guitarra » J »Jesús Adrián Romero » En el estoy seguro (Tab)

En el estoy seguro
Jesús Adrián Romero

Letras, Acordes y Tabs para Guitarra, Bajo y Ukulele

  • Dm7 A7 | Dm Gm | A7
    Dm7 A7 | Dm Edim7 | A7
    Dm7 A7 | Bb7 A7 | A7(#9)
    
    Dm9             A7/E  A7
    Con sus alas me cubrirá
    Dm             Edim7  A7
    mi esperanza en El está
    C6/9             G
    mis caminos son protegidos
    Bb                Gm/A  A7
    en El encuentro seguridad
    Dm9                 A7/E      A7
    Porque confío en mi Dios y mi rey
    Dm                Edim7     A7
    como guerrero que cubre mi ser
    C6/9             G
    me librará del lazo cazador
    Bb                   Gm/A  A A7
    El es mi escudo y mi salvador
    
  •    piano intro[Dm|A7|Dm|Gm  A7]D Dm|a7|Dm|Gm A7|Dm|
    A7|Bb7|A7 A7 aug
    
          estrofa 1
    Dm9 x2             Em7(b5) A7aug
       Con sus alas me cubri  ra
    Dm9x2           Em7(b5)    A7aug
    mi esperanza en el       esta
    C2                G713
    mis caminos son protegidos
    Bb9                Em7b5   A7aug
    en El encuentro seguri     dad
    (los mismos acordes en las segunda estrofa
    porque confio en mi Dios y mi rey
    como guerrero que cubre mi ser
    me librara del lazo el cazador
    el es mi escudo y mi salvacion(la melodia E G E A A)
     coro:
                    Dm                      Em7b5
    //En el estoy seguro  yo confiado estare
    
  • Dm7           Em7(b5) A7
    Con sus alas me cubrirá
    Dm7           Em7(b5) A7
    mi esperanza en El está
    C/G                G
    mis caminos son protegidos
     Bbmaj7              A7
    en El encuentro seguridad
    Dm7              Em7(b5)      A7
    Porque confío en mi Dios y mi rey
    Dm7                Em7(b5) A7
    como guerrero que cubre mi ser
    C/G               G
    me librará del lazo cazador
    Bbmaj7                A7
    El es mi escudo y mi salvacion
    
    ---CORO---
                  Dm                   A7
    En El estoy seguro yo confiado estaré
    
  • Bien esta es mi primer transcripción espero les sirva de algo,
    aunque hay una parte que no estoy seguro, pero en si esta bien
    parecido y úsenla para glorificar la Gloria de Dios.
    Viva el ministerio musical de la iglesia “EL BUEN PASTOR”
    en Tegucigalpa, Honduras.
    
    Bien acá les va el solo de guitarra eléctrica espero lo saquen
    esta fácil.
    
    E--------------------------------------------------------
    B---13p10-13/15-15p13------------------------------------
    G-------------------------14-12/14/12--------------------
    D--------------------------------------------------------
    A--------------------------------------------------------
    E--------------------------------------------------------
    
    E--------------------------------------------------------
    B--------------------------------------------------------
    G-------------12-14-12-10-9------------------------------
    D---12-12-15---------------------------------------------
    A--------------------------------------------------------
    E-------------
  • Hola a todos aquí están las tabs originales de esta canción
    
    Intro:
    B--------/---------------------------/
    E-3-15-3-/--------------5-----3------/
    A--------/--3-----3------------------/
    D--------/-----------------7-----5---/
    G--------/-----5-----5---------------/
    
    Estrofa:
    B------------------------/---------------------------/
    E----5s6--5s6-0--0--2--3-/----5s6--5s6---0--0--2--3--/
    A--5---------------------/--5------------------------/
    D------------------------/---------------------------/
    G------------------------/---------------------------/
                                               **ADORNO**
    B--------------------------------------/------------------/
    E-------3----3-0--0--2--3---6-6---5-5--/------------------/
    A--3-3----3----------------------------/---5s7------------/
    D--------------------------------------/--------5---3--5--/
    G--------------------------------------/------------------/
    2 veces
    
    Coro:
    SLAP
    B---------------------------/
    E--------------5---
  • +
    ¡Colabora con nosotros!
    Envíanos tu versión de esta canción

Letra de En el estoy seguro
Con sus alas me cubrirá
mi esperanza en El está
mis caminos son protegidos
en El encuentro seguridad
Porque confío en mi Dios y mi rey
como guerrero que cubre mi ser
me librará del lazo cazador
El es mi escudo y mi salvador
En El estoy seguro yo confiado estaré
debajo de sus alas allí moraré
mi refugio es El estaré yo de pie
porque confío en mi Dios y mi rey.
Caerán a mi lado mil
y diez mil a mi diestra
mas a mi no llegará
El es mi escudo y mi fuerza
Dm7 | Edim7 A7 | Bb | A7
Dm7 | A7/E A7 | Bb | A7 | A7(#9) (Al coro)
FINE:
En el estoy seguro
En el estoy seguro
En el estoy seguro
En el estoy seguro
Aquí los acordes de este tema, muy bueno:)
estan mas claros y entendibles
Saludos
JOYCE (Piura-Perú)




[En el estoy seguro chords][En el estoy seguro cifra]
© LaCuerda.net · aviso legal · privacidad · es · en · pt · contacto