Acordes de Guitarra » I »Izal » Despedida (Tab)

Despedida
Izal

  • Letra y Acordes
    DO         LAm                           MIm
    Ya ha comenzado la cuenta atrás, se acabará.
     DO               LAm
    No es que no me importe.
                                   MIm
    es que simplemente sé que lo hará.
    DO                             LAm
    De qué serviría pensar que nunca sucedería.
             MIm          DO
    Prefiero preparar una fiesta de despedida
             LAm                             MIm
    por cada uno de aquellos días que fueron tan...
    
    
    SOL          REm
    Rápidos, tan fáciles,
          LAm             FA
    tan intrépidos, tan imbéciles
                 DO
    que se marcharán.
    
  • Tablatura
    e/----0---------------0---------
    B/--------1---0/1--------1------
    G/-0--------------------------0-
    D/------------------------------
    A/------------------------------
    E/------------------------------
    
    Esto se repite 4 veces hasta que Mikel comienza a cantar.
    
    e/----0---------------0------------0-----------------0--------
    B/--------1---0/1--------1------------1-----0/1----------1----
    G/-0--------------------------1-------------------------------
    D/------------------------------------------------------------
    A/------------------------------------------------------------
    E/------------------------------------------------------------
    
    
    e/---------------------------------------------------------------
    B/---------0------------------0----------0------------0----------
    G/------------------0----------------0------------0-----------0--
    
  • +
    ¡Colabora con nosotros!
    Envíanos tu versión de esta canción

Letra de Despedida
Ya ha comenzado la cuenta atrás, se acabará.
No es que no me importe.
es que simplemente sé que lo hará.
De qué serviría pensar que nunca sucedería.
Prefiero preparar una fiesta de despedida
por cada uno de aquellos días que fueron tan...
Rápidos, tan fáciles,
tan intrépidos, tan imbéciles
que se marcharán.
Invitaremos a todo el mundo en la vecindad
con las postales que nos sobraron de Navidad.
También a todos esos vecinos
a los que alguna vez nos pusimos a criticar.
Nos regalaron tantos momentos
de estar completamente de acuerdo, de estar en paz.
En paz.
Plácidos, ingrávidos,
tan espléndidos, tan románticos.
Tan rápidos, tan fáciles,
tan intrépidos, tan imbéciles
que se marcharán.
Se marcharán.
(M.P.M.)



© LaCuerda.net · aviso legal · privacidad · contacto