Tablatura para Guitarra de Izal: Despedida
Conexión · Inscripción
Letras y Acordes
Pantalla Completa
Imprimir
Versión Texto
Añadir Favorito
Otras Versiones

Mostrar Diagramas
Desfile Automático
Manipular Acordes
Formato del Texto


Despedida(TAB)

Izal

calidad:
izal0072
AUTOR: Izal
ALBUM: Agujeros de Gusano (2013)
Enviado por Jesús, basado en M.P.M.
Hola!! Es mi primera tablatura, así que si hay algún fallo perdonen :)


Punteo que hace al principio de la canción

Cejilla 5º traste



e/----0---------------0---------
B/--------1---0/1--------1------
G/-0--------------------------0-
D/------------------------------
A/------------------------------
E/------------------------------

Esto se repite 4 veces hasta que Mikel comienza a cantar.

e/----0---------------0------------0-----------------0--------
B/--------1---0/1--------1------------1-----0/1----------1----
G/-0--------------------------1-------------------------------
D/------------------------------------------------------------
A/------------------------------------------------------------
E/------------------------------------------------------------


e/---------------------------------------------------------------
B/---------0------------------0----------0------------0----------
G/------------------0----------------0------------0-----------0--
D/---2-----------------0/2-------2----------0/2------------------
A/---------------------------------------------------------------
E/---------------------------------------------------------------



Esto se repite hasta que Mikel canta'RÁPIDOS... TAN FÁCILES...

También se puede tocar con acordes, pero a mi personalmente me gusta
 más con el punteo.

Y EL RESTO DE LA CANCIÓN LO TOCO CON ACORDES. AQUÍ LOS PONGO
POR SI OS SIRVEN:


DO LAm MIm Ya ha comenzado la cuenta atrás, se acabará.
DO LAm No es que no me importe.
MIm es que simplemente sé que lo hará.
DO LAm De qué serviría pensar que nunca sucedería.
MIm DO Prefiero preparar una fiesta de despedida
LAm MIm por cada uno de aquellos días que fueron tan...
SOL REm Rápidos, tan fáciles,
LAm FA tan intrépidos, tan imbéciles
DO que se marcharán.
DO LAm MIm Invitaremos a todo el mundo en la vecindad
DO LAm MIm con las postales que nos sobraron de Navidad.
DO También a todos esos vecinos
LAm MIm a los que alguna vez nos pusimos a criticar.
DO Nos regalaron tantos momentos
LAm MIm de estar completamente de acuerdo, de estar en paz. En paz.
SOL REm Plácidos, ingrávidos,
LAm FA tan espléndidos, tan románticos.
SOL REm Tan rápidos, tan fáciles,
LAm FA tan intrépidos, tan imbéciles
DO que se marcharán. PD: Al final hace el punteo del principio, para quien quiera hacerlo también queda bien. GRACIAS
Este fichero es trabajo propio de su transcriptor y representa su interpretación personal de la canción. El material contenido en esta página es
para exclusivo uso privado, por lo que se prohibe su reproducción o retransmisión, así como su uso para fines comerciales.

© LaCuerda.net · Aviso Legal · Privacidad