Acordes de Guitarra » I »Los Invasores De Nuevo León » De ramones a Terán (Tab)

De ramones a Terán
Los Invasores De Nuevo León

  • Letra y Acordes
    intro: C G D G G7
           C G D G
    
       G
    Corriendo por los caminos
                    D
    de ramones a teran
    
    Me encontré una morenita
                        G
    como una flor al cortar (x2)
    
    coro:
    G7
                         C
    Y estaba tan requetelinda que
                        G
    yo no la puedo olvidar
                          D
    pero si ella no me quiere
    
  • Tab p/Bajo
    Album: La caida de un monarca
    Año: 1985
    
    Intro
    
    G ----------------7-5------------7---------44-7--------------------
    D ---2-5---4-7--5-----7-5------77------4-5------3-2-----2-5----4-7-
    A -3-----5----------------7--5-----5-7--------------5-3------5-----
    E -----------------------------------------------------------------
    
    
    G ---7-5-------------7----------44-7-----------9-7-5--------44-7-
    D -5-----7-5------77--------4-5-----------4-5---------9-7-5------
    A -----------7--5------5-7-----------5-7-------------------------
    E ---------------------------------------------------------------
    
    
    
    Corriendo por los caminos de Ramones a Teran....
    
    G ---4-7---44-7-----------------------------------------------
    D -5-----5-----5-4------4-7----44-7---4-7---44-7---4-7---44-7-
    A -----------------7--5------5------5-----5------5-----5------
    E ------------------------------------------------------------
    
    Me encontre una morenita...............................
    
    G ------------------------4-7---------44-7--------
  • +
    ¡Colabora con nosotros!
    Envíanos tu versión de esta canción

Letra de De ramones a Terán
Corriendo por los caminos
de ramones a teran
Me encontré una morenita
como una flor al cortar (x2)
Y estaba tan requetelinda que
yo no la puedo olvidar
pero si ella no me quiere
hay que mal voy a quedar (x2)
Cuando estaba junto de ella
yo no se lo que sentí
si ella me dice llorando
yo tambien le digo asi (x2)



© LaCuerda.net · aviso legal · privacidad · contacto