Acordes de Guitarra » I »Los Invasores De Nuevo León » Playa Sola (Tab)
  • Letra y Acordes
    Intro: G,F#m,Em,C,D7,G  G,F#m,Em,D7/,G,D7,G
        
    G         F#m       Em
    A mi playa   nadie viene
           C-D7        G
    Estoy solo frente mar
            F#m      Em
    MI canoa   MI guitarra
     D7/   G   D7      G   G7
    Y una red para pescar
    
             C  D7        G    E7
    Por las noches yo le canto
           Am  D7       G   G7
    A LA Abriz y al palmar
          C-D7        G
    Y la luna que ilumina
           A7           D
    Mi tristeza y mi penar
    
    
  • Tablatura
    E ----------------------------------------------------
    A ----------------------------------------------------
    D ----------------------------------------------------
    G -6-6-6-8-10-10-1010---8-10-8-6----------------------
    B --------------------------------8-88-88-------------
    E ----------------------------------------------------
    
    E ----------------------------------------------------
    A ----------------------------------------------------
    D ----------------------------------------------------
    G -8-8-8-10-12---10-12/14-12-10-8-6--10-8-6-----------
    B ------------------------------------------10-8-7----
    E ----------------------------------------------------
    
    E ----------------------------------------------------
    A ----------------------------------------------------
    D ----------------------------------------------------
    G -6-6-6-8-10-10-1010---8-10-8-6----------------------
    B ------------------------------8-88-88---------------
    E ----------------------------------------------------
    
  • +
    ¡Colabora con nosotros!
    Envíanos tu versión de esta canción

Letra de Playa Sola
A mi playa nadie viene
Estoy solo frente mar
Y una red para pescar
Por las noches yo le canto
Y la luna que ilumina
Mi tristeza y mi penar
Esperando que se acuerde
De mi vida el gran senor
Y dejar la playa sola
Y reunirme con mi amor
Para el camarada que queria esta cancion.
Atte: 'El Rey Del Bajosexto'



© LaCuerda.net · aviso legal · privacidad · contacto