Acordes de Guitarra » I »Los Invasores De Nuevo León » Para tí mi amor (Tab)

Para tí mi amor
Los Invasores De Nuevo León

Letras, Acordes y Tabs para Guitarra, Bajo y Ukulele

  • D - M - A - G - F# - Bm - M -  A
    
    A
    Para ti mi amor que tienes un gran corazón
                     A7             D
    Eres fiel y con amor me sabes querer
                        M                      A
    Para ti mi amor escribo este poema porque se
                                    M               A
    Que tienes las virtudes  en tu ser que yo he soñado.
    
    
    Coro:
               D       M7           A - G - F#
    Para ti mujer que sabes eludir adversidades no sabes si no
               Bm    M7                       A A7
    Te gusta mentir para mi corazón eres muy grande
                D       M                   A-G-F#
    Cuando te conocí recuerdo eras flor en primavera jamás
                     Bm       M7                        A
    
  • Album: Va Para Ti Mi Amor
    Año: 1984
    
    
    Intro
    
    G -------------------------------------------4--------------------
    D ------------6-9-77---7-55---5-44---4-----4-------6-9------------
    A -55---5--77--------7------5------4----22------77---------4-7----
    E ----7-------------------------------------------------55--------
    
    Para ti mi amor
    
    G ---------------------------------------------
    D ----------------------7-5-4------------------
    A ----4-7----4-7----4-7-------7--55-----55---5-
    E -55-----55-----55-----------------5-5----5---
    
    Escribo este poema porque se...
    
    G ----------------------------------
    D ---6-9--77----77---7-9------------
    A -77---------77----7-----77----4-7---
    E ---------------------------5------
    
    Para ti mujer que sabes eludir adversidades.....
    
    G -------------------------------------------4--------------------
    D ------------6-9-77---7-55---5-44---4-----4----------------------
    A -55---5--77--------7------5------4----22------77---7------4-7----
    E ----7--------------------------------
  • +
    ¡Colabora con nosotros!
    Envíanos tu versión de esta canción

Letra de Para tí mi amor
Para ti mi amor que tienes un gran corazón
Eres fiel y con amor me sabes querer
Para ti mi amor escribo este poema porque se
Que tienes las virtudes en tu ser que yo he soñado.
Para ti mujer que sabes eludir adversidades no sabes si no
Te gusta mentir para mi corazón eres muy grande
Cuando te conocí recuerdo eras flor en primavera jamás
Imagine que me quisieras jamás pensaba ser dueño de ti.
Para ti mujer que eres en mi vida fe y consuelo no te has de
Imaginar cuanto te quiero no sabes cuanto me has hecho feliz
Porque hoy que veo la realidad si quieres tu bien puedes
Reprocharme Si tuve alguna duda de tu amor Perdóname no
quería equivocarme.
HABLADO:
Es para ti mi amor que en la vida me has dado tantas cosas bellas
porque tu eres todo eres un amor eres un regalo de dios tu eres
*********************************************************************
CREO QUE LA TRANSCIPCION ES EXACTA PERO AHI ESTA MI CORREO POR SI
LLEGASE A TENER ALGUN ERROR.
ARRIBA LAS CHIVAS!!!!!!!!!!!




[Para tí mi amor chords][Para tí mi amor cifra]
© LaCuerda.net · aviso legal · privacidad · es · en · pt · contacto