Acordes de Guitarra » I »Indio Solari » Una rata muerta entre los geranios (Tab)

Una rata muerta entre los geranios
Indio Solari

Letras, Notas, Punteos, Tablaturas y Acordes de Guitarra (Tabs & Chords)

  • Letra y Acordes
    Am6: x02212
    Am9: x02213
    Em7: 022030
    C4:  x32030
    C2:  x32000
    
    Intro: [Am6 - Am9] (x8)
           [Em - Em7] (x2)
    
    [1]
    Am
    Con un soplo vacío mi boca
                              Am6   Am     Am9 - Am
    es tarde en la noche y no puedo dormir
    silenciosa, mi risa está oscura
                           Am6    Am
    domina mis labios, me obliga a mentir
    
    [2]
    C       C4-C-C2   C
    
  • Tablatura
    Intro:
    
    |-------------|------------|
    |--7777-8888--|------------|
    |--5555-5555--|---- x8 ----|
    |--7777-7777--|------------|
    |-------------|------------|
    |-------------|------------|
    
     Riff:
    |-------------------------|
    |-------------------------|
    |-------------------------|
    |-------------------------|
    |---7-9109-7~-------------|
    |--7------------7/(10)/7--|
    
    
     Verso:
    |-------------|
    |--7777-8888--|
    |--5555-5555--|
    |--7777-7777--|
    |-------------|
    |-------------|
    
    
     DO
    |------------------|------|----------|
    |------------------|------|----------|
    |--------9----9----|--X4--|---Riff---|
    |--10101010-10-10--|------|----------|
    |--101010----------|------|----------|
    |--8-8-8-----------|------|----------|
    
    
     Solo saxo:
    
    |-----------------------|------|
    |-----------------------|------|
    |-----------------------|--x4--|
    |-----------------------|------|
    |------------109-----7--|------|
    |---7---10---------10---|------|
    
    
     Solo:
    (efecto:creo que usa un pedal de efecto Phaser
     en modo vibrato, yo uso es
  • +
    ¡Colabora con nosotros!
    Envíanos tu versión de esta canción

Letra de Una rata muerta entre los geranios
[1]
Con un soplo vacío mi boca
es tarde en la noche y no puedo dormir
silenciosa, mi risa está oscura
domina mis labios, me obliga a mentir
[2]
Nieblas cubren el parque
ponen un velo que quita vida y da ilusión
[1]
Necesito de algún paraiso
que obligue a mi cuerpo a jugar con vos
aunque estoy atado a tus diabluras
sabés que estoy siempre a favor del adios
[2]
Perros como fantasmas
que nos rodean en la neblina al caminar
[1]
La belleza es siempre temible
y se hace difícil poder soportar
cuando vas de un silencio a otro
cubriendo tus ojos con mi soledad
[2]
Nubes que son sospechas
(mientras me llegan perfumes de la tempestad)
Las ves?
Siguen en Em hasta el final
Un temazo del Indio!
Dudas y/o correcciones a lantenadeejay@hotmail.com
www.lantenadj.com.ar



© LaCuerda.net · Aviso Legal · Privacidad