Acordes de Guitarra » H »Hillsong United » Venga tu reino (Tab)

Venga tu reino
Hillsong United

  • Letra y Acordes
    (Intro: //Bm G A F#m - G//)
    
        Bm
    Tu amor me alcanzó, Señor,
    G                 A                  F#m    G
    Por tu gracia puedo entrar, contigo puedo estar.
    
    Bm
    En mi vida tu verdad,
    G              A            G
    Vida tu palabra es, vida eterna es.
    
            A               G
    Vivo por ti, (por) tu verdad.
    
             D                  G
    Que tu reino, oh Dios, venga con poder,
             Bm            G
    Que se haga tu voluntad.
               D                G
    
  • Letra y Acordes
    (Intro: //Bm7 Gadd9 A2 F#m7 - G//)
    
        Bm
    Tu amor me alcanzó, Señor,
    G                 A2                  F#m7    G
    Por tu gracia puedo entrar, contigo puedo estar.
    
    Bm
    En mi vida tu verdad,
    G              A2            F#m7   G
    Vida tu palabra es, vida eterna es.
    
            A2               G add9
    Vivo por ti, (por) tu verdad.
    
            D add9               G add9
    Que tu reino, oh Dios, venga con poder,
             Bm7     Bm7(add2)G
    Que se haga tu voluntad.
         D add9      G add9
    
  • Tablatura
    Bm G A D
    
    el feedback del delay debe estar en cero
    el d.time en 320 ms
    
    
    intro
    
    g1 over drive/reverb
    
    e------------------------------------------------
    b--5/7-775557775557575--5/10-1010-5557775557575--
    g------------------------------------------------
    d------------------------------------------------
    a------------------------------------------------
    e------------------------------------------------
    
    e----------------------------------------------
    g-5/12-1212---5557775557575--------------------
    g---------------------------777666444-777666444
    
  • Tablatura
    La version anterior de tablatura solo tenia la intro
    aqui les doy un poco mas espero que les sirva
    Paz a todos...
    
    Intro:
    
    e|-------------------------555-------------------777---------------------|
    B|--777-555-777-555-77-5-7-----555-777-555-77-5-7----555-777-555-77-5----|
    G|-----------------------------------------------------------------------|
    D|-----------------------------------------------------------------------|
    
    
    e|----------------------------------------------|
    B|---0--333-222-0-333-222--0---------0----------|
    G|----------------------------------------------|
    
    verso:
    
    e|------------------------------------|
    B|------------------------------------|
    G|------------------------------------|
    D|--999---555///--777----44----555----|
    A|--999---555///--777----44----555----|
    E|--777---333///--555----22----333----|
    
    pre-coro:
    
    e|--------------------555-777-888-101010--10-------|
    B|--------------------555-777-888-101010--10-------|
    G|--------------------444-666-777--9-9-9---9-------|
    D|---
  • Tablatura
    GUITARRA 1
    -----------------------------------------------------------------
    Intro/Puente (x2)
    
    e|--------------------------------------------------------------|
    B|-777-555-777-555-77-5h7/10-1010--555-777-555-777-5h7/12-1212--|
    G|--------------------------------------------------------------|
    D|--------------------------------------------------------------|
    A|--------------------------------------------------------------|
    E|--------------------------------------------------------------|
    
    e|-------------------------------------------------|
    B|---555-777-555-777-5h7---------------------------|
    G|-----------------------777-666-444-777-666-444---|
    D|-------------------------------------------------|
    A|-------------------------------------------------|
    E|-------------------------------------------------|
    
    
    Verso
    
    e|-----------------------------------------------------|
    B|-----7~---8~----10---10---10---10---3-3-3-3-3-3-3----|
    G|----7~---7~----9----9----9----9----------0-0-0-0-----|
    D|---9~--
  • +
    ¡Colabora con nosotros!
    Envíanos tu versión de esta canción

Letra de Venga tu reino
Tu amor me alcanzó, Señor,
Por tu gracia puedo entrar, contigo puedo estar.
En mi vida tu verdad,
Vida tu palabra es, vida eterna es.
Vivo por ti, (por) tu verdad.
Que tu reino, oh Dios, venga con poder,
Que se haga tu voluntad.
Donde tú estás fluye salvación,
Quiero más de ti, más de ti.
(Instr.: Bm G A F#mm G)
Jesús la muerte venció,
Su nombre poderoso es, todopoderoso es.
En fe me levantaré,
Tus pies y manos yo seré, tu vida mostraré.
(PRE-coro y coro) (Instr.: Bm G A G)
señor Jesús.
(pre-coro 2) Vivo por ti, por tu verdad,
Te anhelo a ti y tu verdad.



© LaCuerda.net · aviso legal · privacidad · contacto