Acordes de Guitarra » H »Hillsong United » There is nothing like (Tab)

There is nothing like
Hillsong United

Letras, Acordes y Tabs para Guitarra, Bajo y Ukulele

  • Intro: A  C#m7  A  E  Bsus  B C#m7  E  B/D#  B  C#m7  E  B/D#  B
    
    
    C#m7    E      B/D#  B
    Rey de gracia padre fiel
    C#m7  E   B/D#   B
    Tu amor me cautivo
           C#m7    E
    Me has hecho libre
    B/D#  B  C#m7
    Del pecado
    E  B/D#  B
    
    C#m7     E   B/D#  B
    Glorificado salvador
    C#m7    E   B/D#    B
    Tu ofrenda me slavo
    C#m7    E
    En reverencia
    B/D#   B  C#m7
    
  • -----------------------
    --------9-----9--------
    -----11-----------11--- (repeat this 4x)
    --11-------11----------
    -----------------------
    -----------------------
    "2nd lead guitar"
    ----------------------------
    ----9-----------------------
    -11---11-9-9h11--------9h11-
    ----------------9-9h11------
    ----------------------------
    ----------------------------
    
    -------------------------------
    ----9--------------------------
    -11---11-9-9h11-----11---11----
    ---------------9-9----9----9---
    -------------------------------
    -------------------------------
    
  • +
    ¡Colabora con nosotros!
    Envíanos tu versión de esta canción

Letra de There is nothing like
Rey de gracia padre fiel
Tu amor me cautivo
Me has hecho libre
Del pecado
Glorificado salvador
Tu ofrenda me slavo
En reverencia
Me acerco a ti
PRECORO
Me entrego a ti
Mi vida eres tu
No hay nada igual
No hay nada igual
A tu amor
Tu amor
No hay nada igual
No hay nada igual
A tu amor
Tu amor
Santo Espíritu de Dios
Contigo quiero estar
Guíame en tus caminos
Te amo por siempre
Te amo por siempre




[There is nothing like chords][There is nothing like cifra]
© LaCuerda.net · aviso legal · privacidad · es · en · pt · contacto
DINAMICO