Acordes de Guitarra » H »Hillsong United » Soberano (Tab)
  • Letra y Acordes
    C  Csus4  Am
    Manos que
           F/A         Am9
    Fueron clavadas por mi
    C  Csus4  Am
    Heridas que
              F/A         Am9
    Hablan de tu inmenso amor
    
    Pre coro:
    Dm   F        C       G     Dm
    Por eso te llamo mi Cristo
                F
    Por eso te canto
    
    Coro:
    G           Dm
    Dios del universo
               F
    Salvador eterno
    
  • Letra y Acordes
    Csus2     : x35533
    G         : 355433
    Am7(add4) : x77533
    Fadd2     : 333563
    
    Intro :  Csus2 - Am7(add4)
    
    Estribillo 1:
    
    Csus2          Am7(add4)
         Manos que          fueron clavadas por mí.
    Csus2           Am7(add4)
         Heridas que        hablan de tu inmenso amor.
    
    FAdd2     Am7(add4)    Csus2
         Por  eso     te   llamo mi Cristo,
    
    FAdd2     Am7(add4)    FAdd2
         Por eso       te canto.
    
    
  • Tablatura
    Introducción (C,C,C,C, - C,C,Am,Am)
    
    e------8----------8-----------------------8-------------
    B----------------------------8--------------------------
    G---9----10----9----10----9-----10-----9----10----------
    D-------------------------------------------------------
    A-------------------------------------------------------
    E---8----------8----------8------------8----------------
    
    e-----8----------8-----------------------8--------------
    B----------------------------8--------------------------
    G--9----10----9----10-----9-----10----9----10-----------
    D-------------------------------------------------------
    A-------------------------0-----------0-----------------
    E--8----------8-----------------------------------------
    
    Tabs 1er estrofa: (Tonos C, Am7, C, Am7) (Manos que fueron
    clavadas Por mi, Heridas que hablan de tu inmenso amor)
    
    e-----8----------8-----------8---------------------------
    
  • Tablatura
     C    Csus4          Am7   Am13 Am7   Am13
    [-----8--]          [----3----------8--]
    [-5-----6]          [-5----6-----5----6]
    [-0------] 2 veces, [-5----------5-----] se repite
    [--------] luego    [------------------] todo
    [--------]          [-0----------0-----]
    [-8------]          [------------------]
    
    
    Verso: uso las mismas notas del intro en C Csus4,
    y en la parte de Am7 Am13 va asi:
    
                                                            Am    Am13 Am7
    [----3--]                                              [---3---------3--]
    [-5----6]                                              [-5----6----5---5]
    [-5-----] 2 veces, luego se repite el verso, y en      [-5---------5----]
    [-------]        la ultima parte del verso va asi:     [----------------]
    [-0-----]                                              [-0-------0------]
    [-------]                                              [----------------]
    
    
  • +
    ¡Colabora con nosotros!
    Envíanos tu versión de esta canción

Letra de Soberano
Manos que
Fueron clavadas por mi
Heridas que
Hablan de tu inmenso amor
Pre coro:
Por eso te llamo mi Cristo
Por eso te canto
Dios del universo
Salvador eterno
Rey de toda la creación
Redentor divino
Dios a ti me rindo
Gloria te doy
Verso II:
Santo Dios
Tu plan soberano es
Al enviar
Tu hijo a la humanidad
Pre coro:
Por eso te llamo mi Cristo
Por eso te canto
Dios del universo
Salvador eterno
Rey de toda la creación
Redentor divino
Dios a ti me rindo
Gloria te doy
Santo, Santo, Santo Dios
Santo, Santo, Santo Dios
Verso III:
Manos que
Se entregaron por amor
Lo que soy
Siempre te dare Señor
Pre coro:
Por eso te llamo mi Cristo
Por eso te canto
Dios del universo
Salvador eterno
Rey de toda la creación
Redentor divino
Dios a ti me rindo
Gloria te doy
Santo, Santo, Santo Dios
Santo, Santo, Santo Dios



© LaCuerda.net · aviso legal · privacidad · contacto