Acordes de Guitarra » H »Hillsong United » Selah (Tab)

Selah
Hillsong United

Letras, Acordes y Tabs para Guitarra, Bajo y Ukulele

  • INICIAR EN EL TIEMPO (SEGUNDO) # 00:16
    ---------|-----------------|------------------
    -9-10----|------9-9h10-10--|---10-10p9-9h10---
    ------11-|-----7-----------|------------------
    ---------|-11------------11|-12-------------7-
    ---------|-----------------|------------------
    ---------|-----------------|------------------
    
    -------------|-----------------------
    ---10-9-10---|----7-------9----------
    -------------|------7------------(2x)
    -11-------11-|-5s7----7s9---9s7------
    -------------|-----------------------
    -------------|-----------------------
    
    -----------|------------------|-----------------
    -10-----10-|-----7-------9----|-------------10--
    -----------|-------7----------|-----------------
    ---11-12---|--5s7----7s9---9s7|-11h12p11--10---
    -----------|------------------|-----------------
    -----------|------------------|-----------------
    
    |---------------
    |-7-----9-------
    |--7-----9------
    |---7-----9--7--
    |---------------
    |---------------
    
    ------------|--------------------
    --9b10r9----|--7-7
  • +
    ¡Colabora con nosotros!
    Envíanos tu versión de esta canción






[Selah chords][Selah cifra]
© LaCuerda.net · aviso legal · privacidad · es · en · pt · contacto
DINAMICO